» » »

Lefty Bass tabs (ver.1)

Artists:  A B C D E F G H I J K L M N O P Q R S T U V W X Y Z # 

Lefty Bass tabs (ver.1)

Disco Ensemble
Rating:
0/5 (0 votes)

Hard to play? Try these video lessons and learn fast.
                Disco Ensemble - Lefty


Tuning: Drop D (DADG)

Intro:

G|-------------------------------------------------------------------|
D|--5-5-5-5-5-5-5-5-3-3-3-3-3-3-3-3----------------------------------|
A|----------------------------------3-3-3-3-3-3-3-3-6-6-6-6-6-6-6-6--|
D|-------------------------------------------------------------------| x4

Verse: no bass

Chorus:

G|-------------------------------------------------------------------|
D|--5-5-5-5-5-5-5-5-3-3-3-3-3-3-3-3----------------------------------|
A|----------------------------------3-3-3-3-3-3-3-3-6-6-6-6-6-6-6-6--|
D|-------------------------------------------------------------------| x4

Verse

Chorus

Bridge:

G|-------------------------------------------------------------------|
D|--8-8-8-8-8-8-8-8-----------------5-5-5-5-5-5-5-5-5-5-5-5-5-5-5-5--|
A|------------------5-5-5-5-5-5-5-5----------------------------------|
D|-------------------------------------------------------------------| x2

G|-------------------------------------------------------------------|
D|--8-8-8-8-8-8-8-8-7-7-7-7-7-7-7-7-5-5-5-5-5-5-5-5-5-5-5-5-5-5-5-5--|
A|-------------------------------------------------------------------|
D|-------------------------------------------------------------------|

G|-------------------------------------------------------------------|
D|--8-8-8-8-8-8-8-8-7-7-7-7-7-7-7-7----------------------------------|
A|----------------------------------8-8-8-8-8-8-8-8-8-8-8-8-8-8-8-8--|
D|-------------------------------------------------------------------|

Break:

G|-------------------------------------------------------------------|
D|-------------------------------------------------------------------|
A|-------------------------------------------------------------------|
D|--5~--------------3~-------------/10~------------------------------| x2

Solo:

G|-------------------------------------------------------------------|
D|--5-5-5-5-5-5-5-5-3-3-3-3-3-3-3-3----------------------------------|
A|----------------------------------3-3-3-3-3-3-3-3-6-6-6-6-6-6-6-6--|
D|-------------------------------------------------------------------| x3

G|----------------------------------5-5-5-5-5-5-5-5-8-8-8-8-8-8-8-8--|
D|--5-5-5-5-5-5-5-5-3-3-3-3-3-3-3-3----------------------------------|
A|-------------------------------------------------------------------|
D|-------------------------------------------------------------------|

Outro:

G|-------------------------------------------------------------------|
D|----------------------------------5-5-5-5-5-5-5-5-3-3-3-3-3-3-3-3--|
A|--6-6-6-6-6-6-6-6-3-3-3-3-3-3-3-3----------------------------------|
D|-------------------------------------------------------------------| x3

G|-------------------------------------------------------------------|
D|-------------------------------------------------------------------|
A|--6-6-6-6-6-6-6-6-3-3-3-3-3-3-1-0----------------------------------|
D|----------------------------------5~-------------------------------|
            
Hard to play? Try these video lessons and learn fast. | Correct




comments powered by Disqus
↑ Back to top | Tablatures and chords are parodies/interpretations of the original songs. You may use it for private study, scholarship, research or language learning purposes only