>
 >
Headphones

Headphones Guitar Tabs

Disco Ensemble - Headphones chords, tabs, tablatures, lyrics

Guitar lessons | Add/correct | Request | Top 50 tabs Artists:  A B C D E F G H I J K L M N O P Q R S T U V W X Y Z 0-9

Headphones Guitar Tabs – Disco Ensemble

CD, Sheet music, Poster

Do you like Headphones? Share with your friends now
Bass TabsTabs
Tuning: Drop D (D A D G H e)

I tabbed this out because I just love Disco Ensemble,
and think they are getting half the attention they deserve.
I saw that there already was a (kind) person who had tabbed it out in Guitar Pro,
but I disagree with him in some notes, and I think there should be a text version too, 
here it goes:

Intro:

E||--------------------------|--------------------------|
B||--------------------------|--------------------------|
G||--------------------------|--------------------------|
D||--------4--------4-----4--|--------8--------8-----8--|
A||--------------------------|--------------------------|
D||--1--1-----1--1-----1-----|--4--4-----4--4-----4-----|

E||--------------------------|--------------------------|
B||--------------------------|--------------------------|
G||--------------------------|--------------------------|
D||--------------------------|--------------------------|
A||--------8--------8-----8--|--------6--------6-----6--|
D||--8--8-----8--8-----8-----|--6--6-----6--6-----6-----|


E||--------------------------|--------------------------|
B||--------------------------|--------------------------|
G||--------------------------|--------------------------|
D||--------4--------4-----4--|--------8--------8-----8--|
A||--------------------------|--------------------------|
D||--1--1-----1--1-----1-----|--4--4-----4--4-----4-----|

E||--------------------------|--------------------------|
B||--------------------------|--------------------------|
G||--------------------------|--------------------------|
D||--------------------------|--------------------------|
A||--------8--------8-----8--|--------6-----6-----------|
D||--8--8-----8--8-----8-----|--6--6-----6-----6--6--6--|


Verse - A:


E||-------------------------|--------------------------|
B||--------------6--6-------|--------------------------|
G||--6--6--8--8--------8----|--6--6--6--6--6--6--6--6--|
D||-------------------------|--------------------------|
A||-------------------------|--------------------------|
D||-------------------------|--------------------------|

E||-------------------------|--------------------------|
B||--------------6--6-------|--------------------------|
G||--6--6--8--8--------8----|--6--6--6--6--6--6--6--6--|
D||-------------------------|--------------------------|
A||-------------------------|--------------------------|
D||-------------------------|--------------------------|

E||-------------------------|--------------------------|
B||--------------6--6-------|--------------------------|
G||--6--6--8--8--------8----|--8--8--8--8--8--8--8--8--|
D||-------------------------|--------------------------|
A||-------------------------|--------------------------|
D||-------------------------|--------------------------|


E||-------------------------|--------------------------|------------|
B||-------------------------|--------------------------|------------|
G||--8--8--8--8--8--8--8p6--|--6--6--6--6--6--6--6--6--|--6--6--6---|
D||-------------------------|--------------------------|------------|
A||-------------------------|--------------------------|------------|
D||-------------------------|--------------------------|------------|

Chorus:

E||--------------------------|--------------------------|
B||--------------------------|--------------------------|
G||--------------------------|--------------------------|
D||--1--1--1--1--1--1--1--1--|--4--4--4--4--4--4--4--4--|
A||--1--1--1--1--1--1--1--1--|--4--4--4--4--4--4--4--4--|
D||--1--1--1--1--1--1--1--1--|--4--4--4--4--4--4--4--4--|

E||--------------------------|--------------------------|
B||--------------------------|--------------------------|
G||--------------------------|--------------------------|
D||--8--8--8--8--8--8--8--8--|--6--6--6--6--6--6--6--6--|
A||--8--8--8--8--8--8--8--8--|--6--6--6--6--6--6--6--6--|
D||--8--8--8--8--8--8--8--8--|--6--6--6--6--6--6--6--6--|

E||--------------------------|--------------------------|
B||--------------------------|--------------------------|
G||--------------------------|--------------------------|
D||--1--1--1--1--1--1--1--1--|--4--4--4--4--4--4--4--4--|
A||--1--1--1--1--1--1--1--1--|--4--4--4--4--4--4--4--4--|
D||--1--1--1--1--1--1--1--1--|--4--4--4--4--4--4--4--4--|

E||--------------------------|--------------------------|
B||--------------------------|--------------------------|
G||--------------------------|--------------------------|
D||--8--8--8--8--8--8--8--8--|--6--6--6--6--6--6--6--6--|
A||--8--8--8--8--8--8--8--8--|--6--6--6--6--6--6--6--6--|
D||--8--8--8--8--8--8--8--8--|--6--6--6--6--6--6--6--6--|


Guitar 1:

E||--------------------------|--------------------------|
B||--------------------------|--------------------------|
G||--------------------------|--------------------------|
D||--1--1--1--1--1--1--1--1--|--4--4--4--4--4--4--4--4--|
A||--1--1--1--1--1--1--1--1--|--4--4--4--4--4--4--4--4--|
D||--1--1--1--1--1--1--1--1--|--4--4--4--4--4--4--4--4--|

E||--------------------------|--------------------------|
B||--------------------------|--------------------------|
G||--------------------------|--------------------------|
D||--8--8--8--8--8--8--8--8--|--6--6--6--6--6--6--6--6--|
A||--8--8--8--8--8--8--8--8--|--6--6--6--6--6--6--6--6--|
D||--8--8--8--8--8--8--8--8--|--6--6--6--6--6--6--6--6--|

E||--------------------------|--------------------------|
B||--------------------------|--------------------------|
G||--------------------------|--------------------------|
D||--1--1--1--1--1--1--1--1--|--4--4--4--4--4--4--4--4--|
A||--1--1--1--1--1--1--1--1--|--4--4--4--4--4--4--4--4--|
D||--1--1--1--1--1--1--1--1--|--4--4--4--4--4--4--4--4--|

E||--------------------------|--------------------------|
B||--------------------------|--------------------------|
G||--------------------------|--------------------------|
D||--8--8--8--8--8--8--8--8--|--6--6--6--6--6--6--6--6--|
A||--8--8--8--8--8--8--8--8--|--6--6--6--6--6--6--6--6--|
D||--8--8--8--8--8--8--8--8--|--6--6--6--6--6--6--6--6--|


Guitar 2:

E||--------------------------|--------------------------|
B||--------------------------|--------------------------|
G||--15-15-15-15-15-15-15-15-|--13-13-13-13-13-13-13-13-|
D||--------------------------|--------------------------|
A||--------------------------|--------------------------|
D||--------------------------|--------------------------|

E||--------------------------|--------------------------|
B||--------------------------|--------------------------|
G||--10-10-10-10-10-10-10-10-|--8--8--8--8--8--8--8--8--|
D||--------------------------|--------------------------|
A||--------------------------|--------------------------|
D||--------------------------|--------------------------|

E||--------------------------|--------------------------|
B||--------------------------|--------------------------|
G||--11-11-11-11-11-11-11-11-|--10-10-10-10-10-10-10-10-|
D||--------------------------|--------------------------|
A||--------------------------|--------------------------|
D||--------------------------|--------------------------|

E||--------------------------|--------------------------|
B||--------------------------|--------------------------|
G||--6--6--6--6--6--6--6--6--|--8--8--8--8--8--8--8--8--|
D||--------------------------|--------------------------|
A||--------------------------|--------------------------|
D||--------------------------|--------------------------|

Verse - B:

E||--6-----------------|--4----------------|
B||--6-----------------|--6----------------|
G||--6-----------------|--6----------------|
D||--------------------|-------------------|
A||--------------------|-------------------|
D||--------------------|-------------------|

E||--4----------------|---9----------------|
B||--6----------------|--11----------------|
G||--6----------------|--11----------------|
D||-------------------|--------------------|
A||-------------------|--------------------|
D||-------------------|--------------------|

E||-------------------------|--------------------------|
B||--------------6--6-------|--------------------------|
G||--6--6--8--8--------8----|--6--6--6--6--6--6--6--6--|
D||-------------------------|--------------------------|
A||-------------------------|--------------------------|
D||-------------------------|--------------------------|

E||-------------------------|--------------------------|
B||--------------6--6-------|--------------------------|
G||--6--6--8--8--------8----|--6--6--6--6--6--6--6--6--|
D||-------------------------|--------------------------|
A||-------------------------|--------------------------|
D||-------------------------|--------------------------|


E||-------------------------|--------------------------|
B||--------------6--6--6----|-----------------------9--|
G||--6--6--8--8-----------8-|--8--8--8--8--8--8--8-----|
D||-------------------------|--------------------------|
A||-------------------------|--------------------------|
D||-------------------------|--------------------------|


E||-------------------------|--------------------------|--------------|
B||--9--9--9--9--9--9--9----|--------------------------|--------------|
G||-----------------------6-|--6--6--6--6--6--6--6--6--|--6--6--6--6--|
D||-------------------------|--------------------------|--------------|
A||-------------------------|--------------------------|--------------|
D||-------------------------|--------------------------|--------------|


Chorus:

E||--------------------------|--------------------------|
B||--------------------------|--------------------------|
G||--------------------------|--------------------------|
D||--1--1--1--1--1--1--1--1--|--4--4--4--4--4--4--4--4--|
A||--1--1--1--1--1--1--1--1--|--4--4--4--4--4--4--4--4--|
D||--1--1--1--1--1--1--1--1--|--4--4--4--4--4--4--4--4--|

E||--------------------------|--------------------------|
B||--------------------------|--------------------------|
G||--------------------------|--------------------------|
D||--8--8--8--8--8--8--8--8--|--6--6--6--6--6--6--6--6--|
A||--8--8--8--8--8--8--8--8--|--6--6--6--6--6--6--6--6--|
D||--8--8--8--8--8--8--8--8--|--6--6--6--6--6--6--6--6--|

E||--------------------------|--------------------------|
B||--------------------------|--------------------------|
G||--------------------------|--------------------------|
D||--1--1--1--1--1--1--1--1--|--4--4--4--4--4--4--4--4--|
A||--1--1--1--1--1--1--1--1--|--4--4--4--4--4--4--4--4--|
D||--1--1--1--1--1--1--1--1--|--4--4--4--4--4--4--4--4--|

E||--------------------------|--------------------------|
B||--------------------------|--------------------------|
G||--------------------------|--------------------------|
D||--8--8--8--8--8--8--8--8--|--6--6--6--6--6--6--6--6--|
A||--8--8--8--8--8--8--8--8--|--6--6--6--6--6--6--6--6--|
D||--8--8--8--8--8--8--8--8--|--6--6--6--6--6--6--6--6--|

Guitar 1:

E||--------------------------|--------------------------|
B||--------------------------|--------------------------|
G||--------------------------|--------------------------|
D||--1--1--1--1--1--1--1--1--|--4--4--4--4--4--4--4--4--|
A||--1--1--1--1--1--1--1--1--|--4--4--4--4--4--4--4--4--|
D||--1--1--1--1--1--1--1--1--|--4--4--4--4--4--4--4--4--|

E||--------------------------|--------------------------|
B||--------------------------|--------------------------|
G||--------------------------|--------------------------|
D||--8--8--8--8--8--8--8--8--|--6--6--6--6--6--6--6--6--|
A||--8--8--8--8--8--8--8--8--|--6--6--6--6--6--6--6--6--|
D||--8--8--8--8--8--8--8--8--|--6--6--6--6--6--6--6--6--|

E||--------------------------|--------------------------|
B||--------------------------|--------------------------|
G||--------------------------|--------------------------|
D||--1--1--1--1--1--1--1--1--|--4--4--4--4--4--4--4--4--|
A||--1--1--1--1--1--1--1--1--|--4--4--4--4--4--4--4--4--|
D||--1--1--1--1--1--1--1--1--|--4--4--4--4--4--4--4--4--|

E||--------------------------|--------------------------|
B||--------------------------|--------------------------|
G||--------------------------|--------------------------|
D||--8--8--8--8--8--8--8--8--|--6--6--6--6--6--6--6--6--|
A||--8--8--8--8--8--8--8--8--|--6--6--6--6--6--6--6--6--|
D||--8--8--8--8--8--8--8--8--|--6--6--6--6--6--6--6--6--|

Guitar 2:

E||--------------------------|--------------------------|
B||--------------------------|--------------------------|
G||--15-15-15-15-15-15-15-15-|--13-13-13-13-13-13-13-13-|
D||--------------------------|--------------------------|
A||--------------------------|--------------------------|
D||--------------------------|--------------------------|

E||--------------------------|--------------------------|
B||--------------------------|--------------------------|
G||--10-10-10-10-10-10-10-10-|--8--8--8--8--8--8--8--8--|
D||--------------------------|--------------------------|
A||--------------------------|--------------------------|
D||--------------------------|--------------------------|

E||--------------------------|--------------------------|
B||--------------------------|--------------------------|
G||--11-11-11-11-11-11-11-11-|--10-10-10-10-10-10-10-10-|
D||--------------------------|--------------------------|
A||--------------------------|--------------------------|
D||--------------------------|--------------------------|

E||--------------------------|--------------------------|
B||--------------------------|--------------------------|
G||--6--6--6--6--6--6--6--6--|--8--8--8--8--8--8--8--8--|
D||--------------------------|--------------------------|
A||--------------------------|--------------------------|
D||--------------------------|--------------------------|

Solo:

E||--------------------------|--------------------------|
B||--6--6--------------------|--------------------------|
G||--------6--6--------6--6--|--8--8--6--6--8--8--6--6--|
D||--------------6--6--------|--------------------------|
A||--------------------------|--------------------------|
D||--------------------------|--------------------------|


E||--------------------------|--------------------------|
B||--6--6--------------------|--------6--6--------------|
G||--------6--6--------6--6--|--8--8--------8--8--6--6--|
D||--------------6--6--------|--------------------------|
A||--------------------------|--------------------------|
D||--------------------------|--------------------------|

E||--------------------------|--------------------------|
B||--6--6--------------------|--9--9--------------------|
G||--------6--6--------6--6--|--------5--5--------5--5--|
D||--------------6--6--------|--------------6--6--------|
A||--------------------------|--------------------------|
D||--------------------------|--------------------------|

E||--------------------------|--------------------|
B||--------------------------|--------------------|
G||--------------------------|--------------------|
D||--8--8--8--8--8--8--8--8--|--6--------8--------|
A||--------------------------|--6--------8--------|
D||--------------------------|--6--------8--------|

Verse - C:


E||--------------------------|--------------------------|
B||--------------------------|--------------------------|
G||--6--6--6--6--6--6--6--6--|--6--6--6--6--6--6--6--6--|
D||--------------------------|--------------------------|
A||--------------------------|--------------------------|
D||--------------------------|--------------------------|

E||--------------------------|--------------------------|
B||--4--4--4--4--4--4--4--4--|--4--4--4--4--4--4--4--4--|
G||--6--6--6--6--6--6--6--6--|--6--6--6--6--6--6--6--6--|
D||--------------------------|--------------------------|
A||--------------------------|--------------------------|
D||--------------------------|--------------------------|

E||--2--2--2--2--2--2--2--2--|--2--2--2--2--2--2--2--2--|
B||--4--4--4--4--4--4--4--4--|--4--4--4--4--4--4--4--4--|
G||--6--6--6--6--6--6--6--6--|--6--6--6--6--6--6--6--6--|
D||--------------------------|--------------------------|
A||--------------------------|--------------------------|
D||--------------------------|--------------------------|

E||--4--4--4--4--4--4--4--4--|--4--4--4--4--4--4--4--4--|
B||--4--4--4--4--4--4--4--4--|--4--4--4--4--4--4--4--4--|
G||--6--6--6--6--6--6--6--6--|--6--6--6--6--6--6--6--6--|
D||--------------------------|--------------------------|
A||--------------------------|--------------------------|
D||--------------------------|--------------------------|

Chorus - B:

Guitar 1:

E||--------------------------|--------------------------|
B||--------------------------|--------------------------|
G||--------------------------|--------------------------|
D||--1--1--1--1--1--1--1--1--|--4--4--4--4--4--4--4--4--|
A||--1--1--1--1--1--1--1--1--|--4--4--4--4--4--4--4--4--|
D||--1--1--1--1--1--1--1--1--|--4--4--4--4--4--4--4--4--|

E||--------------------------|--------------------------|
B||--------------------------|--------------------------|
G||--------------------------|--------------------------|
D||--8--8--8--8--8--8--8--8--|--6--6--6--6--6--6--6--6--|
A||--8--8--8--8--8--8--8--8--|--6--6--6--6--6--6--6--6--|
D||--8--8--8--8--8--8--8--8--|--6--6--6--6--6--6--6--6--|

E||--------------------------|--------------------------|
B||--------------------------|--------------------------|
G||--------------------------|--------------------------|
D||--1--1--1--1--1--1--1--1--|--4--4--4--4--4--4--4--4--|
A||--1--1--1--1--1--1--1--1--|--4--4--4--4--4--4--4--4--|
D||--1--1--1--1--1--1--1--1--|--4--4--4--4--4--4--4--4--|

E||--------------------------|--------------------------|
B||--------------------------|--------------------------|
G||--------------------------|--------------------------|
D||--8--8--8--8--8--8--8--8--|--6--6--6--6--6--6--6--6--|
A||--8--8--8--8--8--8--8--8--|--6--6--6--6--6--6--6--6--|
D||--8--8--8--8--8--8--8--8--|--6--6--6--6--6--6--6--6--|

Guitar 2:

E||--------------------------|--------------------------|
B||--------------------------|--------------------------|
G||--15-15-15-15-15-15-15-15-|--13-13-13-13-13-13-13-13-|
D||--------------------------|--------------------------|
A||--------------------------|--------------------------|
D||--------------------------|--------------------------|

E||--------------------------|--------------------------|
B||--------------------------|--------------------------|
G||--10-10-10-10-10-10-10-10-|--8--8--8--8--8--8--8--8--|
D||--------------------------|--------------------------|
A||--------------------------|--------------------------|
D||--------------------------|--------------------------|

E||--------------------------|--------------------------|
B||--------------------------|--------------------------|
G||--11-11-11-11-11-11-11-11-|--10-10-10-10-10-10-10-10-|
D||--------------------------|--------------------------|
A||--------------------------|--------------------------|
D||--------------------------|--------------------------|

E||--------------------------|--------------------------|
B||--------------------------|--------------------------|
G||--6--6--6--6--6--6--6--6--|--8--8--8--8--8--8--8--8--|
D||--------------------------|--------------------------|
A||--------------------------|--------------------------|
D||--------------------------|--------------------------|


E||--------------------------|--------------------------|
B||--------------------------|--------------------------|
G||--------------------------|--------------------------|
D||--1--1--1--1--1--1--1--1--|--4--4--4--4--4--4--4--4--|
A||--1--1--1--1--1--1--1--1--|--4--4--4--4--4--4--4--4--|
D||--1--1--1--1--1--1--1--1--|--4--4--4--4--4--4--4--4--|

E||--------------------------|--------------------------|
B||--------------------------|--------------------------|
G||--------------------------|--------------------------|
D||--8--8--8--8--8--8--8--8--|--6--6--6--6--6--6--6--6--|
A||--8--8--8--8--8--8--8--8--|--6--6--6--6--6--6--6--6--|
D||--8--8--8--8--8--8--8--8--|--6--6--6--6--6--6--6--6--|

E||--------------------------|--------------------------|
B||--------------------------|--------------------------|
G||--------------------------|--------------------------|
D||--1--1--1--1--1--1--1--1--|--4--4--4--4--4--4--4--4--|
A||--1--1--1--1--1--1--1--1--|--4--4--4--4--4--4--4--4--|
D||--1--1--1--1--1--1--1--1--|--4--4--4--4--4--4--4--4--|

E||--------------------------|--------------------------|
B||--------------------------|--------------------------|
G||--------------------------|--------------------------|
D||--8--8--8--8--8--8--8--8--|--6--6--6--6--6--6--6--6--|
A||--8--8--8--8--8--8--8--8--|--6--6--6--6--6--6--6--6--|
D||--8--8--8--8--8--8--8--8--|--6--6--6--6--6--6--6--6--|

Guitar 1:

E||--------------------------|--------------------------|
B||--------------------------|--------------------------|
G||--------------------------|--------------------------|
D||--1--1--1--1--1--1--1--1--|--4--4--4--4--4--4--4--4--|
A||--1--1--1--1--1--1--1--1--|--4--4--4--4--4--4--4--4--|
D||--1--1--1--1--1--1--1--1--|--4--4--4--4--4--4--4--4--|

E||--------------------------|--------------------------|
B||--------------------------|--------------------------|
G||--------------------------|--------------------------|
D||--8--8--8--8--8--8--8--8--|--6--6--6--6--6--6--6--6--|
A||--8--8--8--8--8--8--8--8--|--6--6--6--6--6--6--6--6--|
D||--8--8--8--8--8--8--8--8--|--6--6--6--6--6--6--6--6--|

E||--------------------------|--------------------------|
B||--------------------------|--------------------------|
G||--------------------------|--------------------------|
D||--1--1--1--1--1--1--1--1--|--4--4--4--4--4--4--4--4--|
A||--1--1--1--1--1--1--1--1--|--4--4--4--4--4--4--4--4--|
D||--1--1--1--1--1--1--1--1--|--4--4--4--4--4--4--4--4--|

E||--------------------------|--------------------------|
B||--------------------------|--------------------------|
G||--------------------------|--------------------------|
D||--8--8--8--8--8--8--8--8--|--6--6--6--6--6--6--6--6--|
A||--8--8--8--8--8--8--8--8--|--6--6--6--6--6--6--6--6--|
D||--8--8--8--8--8--8--8--8--|--6--6--6--6--6--6--6--6--|

Guitar 2:

E||--------------------------|--------------------------|
B||--------------------------|--------------------------|
G||--15-15-15-15-15-15-15-15-|--13-13-13-13-13-13-13-13-|
D||--------------------------|--------------------------|
A||--------------------------|--------------------------|
D||--------------------------|--------------------------|

E||--------------------------|--------------------------|
B||--------------------------|--------------------------|
G||--10-10-10-10-10-10-10-10-|--8--8--8--8--8--8--8--8--|
D||--------------------------|--------------------------|
A||--------------------------|--------------------------|
D||--------------------------|--------------------------|

E||--------------------------|--------------------------|
B||--------------------------|--------------------------|
G||--11-11-11-11-11-11-11-11-|--10-10-10-10-10-10-10-10-|
D||--------------------------|--------------------------|
A||--------------------------|--------------------------|
D||--------------------------|--------------------------|

E||--------------------------|--------------------------|
B||--------------------------|--------------------------|
G||--6--6--6--6--6--6--6--6--|--8--8--8--8--8--8--8--8--|
D||--------------------------|--------------------------|
A||--------------------------|--------------------------|
D||--------------------------|--------------------------|

Outro:

E||------------------------|------------------------|
B||------------------------|------------------------|
G||------------------------|------------------------|
D||-------4-------4-----4--|-------8-------8-----8--|
A||------------------------|------------------------|
D||--1---------1-----1-----|--4---------4-----4-----|

E||------------------------|------------------------|
B||------------------------|------------------------|
G||------------------------|------------------------|
D||------------------------|------------------------|
A||-------8-------8-----8--|-------6-------6-----6--|
D||--8---------8-----8-----|--6---------6-----6-----|

E||------------------------|------------------------|
B||------------------------|------------------------|
G||------------------------|------------------------|
D||-------4-------4-----4--|-------8-------8-----8--|
A||------------------------|------------------------|
D||--1---------1-----1-----|--4---------4-----4-----|

E||------------------------|--------------------------|
B||------------------------|--------------------------|
G||------------------------|--------------------------|
D||------------------------|--------------------------|
A||-------8-------8-----8--|--------6--------6-----6--|
D||--8---------8-----8-----|--6--6-----6--6-----6-----|

E||------------------------|------------------------|
B||------------------------|------------------------|
G||------------------------|------------------------|
D||-------4-------4-----4--|-------8-------8-----8--|
A||------------------------|------------------------|
D||--1--1-----1--1-----1---|--4--4-----4--4-----4---|

E||--------------------------|--------------------------|
B||--------------------------|--------------------------|
G||--------------------------|--------------------------|
D||--------------------------|--------------------------|
A||--------8--------8-----8--|--------6--------6-----6--|
D||--8--8-----8--8-----8-----|--6--6-----6--6-----6-----|

E||------------------------|------------------------|
B||------------------------|------------------------|
G||------------------------|------------------------|
D||------4--------4-----4--|------8--------8-----8--|
A||------------------------|------------------------|
D||--1--1-----1--1-----1---|--4--4-----4--4-----4---|

E||--------------------------|--------------------------|
B||--------------------------|--------------------------|
G||--------------------------|--------------------------|
D||--------------------------|--------------------------|
A||--------8--------8-----8--|--------6-----6-----------|
D||--8--8-----8--8-----8-----|--6--6-----6-----6--6--6--|


Tips:
* Listen to the song for timing. This track got a lot of breaks.

* As you can see in the Chorus the guitar is being dubbed.
That means that the 2. guitar has been recorded over the other.
Just cut out the 2. guitar if you're only one guitarist

* Some delay on the solo sounds really nice!

* Send me feedback, this is my first tab, and i would love some feedback!

* And again, just: timing, timing timing.

Legend:

| /  slide up
| \  slide down
| h  hammer-on
| p  pull-off
| ~  vibrato
| +  harmonic
| x  Mute note





Comments


Popular Disco Ensemble tabs & chords
Lefty Bass Tabs
Second Soul Bass Tabs
Sleep On The Wheel Bass Tabs
White Flag For Peace Bass Tabs
Zombies Bass Tabs
Fresh New Blood Tabs
Magic Recoveries 1 Tabs
This Is My Head Exploding Tabs
You Are The Dawn Tabs
You Are The Dawn Ukulele


Song lyrics



↑ Back to top | Tablatures and chords are parodies/interpretations of the original songs. You may use it for private study, scholarship, research or language learning purposes only
© 2014 AZChords.com Contact us | Privacy policy | DMCA | Add/correct tabs | Request tabs | Top 50 tabs