>
 >
Golden Years

Golden Years Guitar Tabs

Disco Ensemble - Golden Years chords, tabs, tablatures, lyrics

Guitar lessons | Add/correct | Request | Top 50 tabs Artists:  A B C D E F G H I J K L M N O P Q R S T U V W X Y Z 0-9

Golden Years Guitar Tabs – Disco Ensemble

CD, Sheet music, Poster

Do you like Golden Years? Share with your friends now
Bass TabsTabs
DISCO ENSEMBLE: Golden Years                                    

tuning: DADGBE


Intro:

-------------------------------------------------------------|
-------------------------------------------------------------|
-------------------------------------------------------------| x 4
-------------------------------------------------------------|
-------------------------------------------------------------|
0-0-0--0--x-0--0--x-0--x-0--0-0-0--x-0--0-0-0--x-x-x---------|


Verse 1

-----|--------|-----|---------|
-----|--------|-----|---------|
--7--|-7--6---|--9--|--9------|
--7--|-5--5---|--9--|--7------|
--5--|-5--5---|--7--|--7------|
-----|--------|-----|---------|


-------------------------------------------------------------|
-------------------------------------------------------------|
-------------------------------------------------------------| 
-------------------------------------------------------------|
-------------------------------------------------------------|
0-0-0--0--x-0--0--x-0--x-0--0-0-0--x-0--0-0-0--x-x-x---------|


Chorus 1

-------------------------------------------------------------------------|
-------------------------------------------------------------------------|
-----------------14-14-14-14-14-14-14-14---------------------------------|
-9-9-9-9-9-9-9-9-------------------------7-7-7-7-7-7-7-7-7-7-7-7-7-7-7-7-|
-9-9-9-9-9-9-9-9-9--9--9--9--9--9--9--9--7-7-7-7-7-7-7-7-9-9-9-9-9-9-9-9-|
-9-9-9-9-9-9-9-9-9--9--9--9--9--9--9--9--7-7-7-7-7-7-7-7-7-7-7-7-7-7-7-7-|


-------------------------------------------------------------------------|
-------------------------------------------------------------------------|
-----------------------------------------------------7-7-7-7-7-7-7-7-----|
-5-5-5-5-5-x-x-x-x-9-9-9-9-9-x-x-x-x-7-7-7-7-7-7-7-7-7-7-7-7-7-7-7-7-----|
-5-5-5-5-5-x-x-x-x-----------x-x-x-x-5-5-5-5-5-5-5-5-5-5-5-5-5-5-5-5-----|
-5-5-5-5-5-x-x-x-x-5-5-5-5-5-x-x-x-x-5-5-5-5-5-5-5-5---------------------|


---------------------------------|----------------10-10-10-10-10-10-10-10-|
---------------------------------|----------------------------------------|
---------------------------------|----------------7--7--7--7--7--7--7--7--|
-9-9-9-9-9-9-9-9-9-9-9-9-7-7-7-7-|5-5-5-5-5-5-5-5-------------------------|
-9-9-9-9-9-9-9-9-9-9-9-9-9-9-7-7-|5-5-5-5-5-5-5-5-5--5--5--5--5--5--5--5--|
-9-9-9-9-9-9-9-9-9-9-9-9-7-7-7-7-|5-5-5-5-5-5-5-5-------------------------|


-------------------------------------------------------------------------|
-------------------------------------------------------------------------|
-----------------------------------------------------7-7-7-7-7-7-7-7-----|
-5-5-5-5-5-x-x-x-x-9-9-9-9-9-x-x-x-x-7-7-7-7-7-7-7-7-7-7-7-7-7-7-7-7-----|
-5-5-5-5-5-x-x-x-x-----------x-x-x-x-5-5-5-5-5-5-5-5-5-5-5-5-5-5-5-5-----|
-5-5-5-5-5-x-x-x-x-5-5-5-5-5-x-x-x-x-5-5-5-5-5-5-5-5---------------------|


Verse

--------------------------------------------------------|
-----------------------------------------------7~-------|
-----------------------------------------------9~-------| 
--------------------------------------------------------|
--------------------------------------------------------|
0-0-0--0--x-0--0--x-0--x-0--0-0-0--x-0--0-0-0-----------|

-------------------------------------------------------------|
-------------------------------------------------------------|
-------------------------------------------------------------| 
-------------------------------------------------------------|
-------------------------------------------------------------|
0-0-0--0--x-0--0--x-0--x-0--0-0-0--x-0--0-0-0--x-x-x---------|

----------------------------------------------|
----------------------------------------------|
----------------------------------------------| 
----------------------------------------------|
----------------------------------------------|
0-0-0--0--x-0--0--x-0--x-0--0-0-0--x-0--0-0-0-|

-----------------------------------|------|--------|-----|---------|
-----------------------------------|------|--------|-----|---------|
-----------------------------------|---7--|-7--6---|--9--|--9------|
-----------------------------------|---7--|-5--5---|--9--|--7------|
-----------------------------------|---5--|-5--5---|--7--|--7------|
-5-5-5/7-7-7/9-9-9/-12-12-12/9-9-9-|------|--------|-----|---------|

-------------------------------------------------------------|
-------------------------------------------------------------|
-------------------------------------------------------------| 
-------------------------------------------------------------|
-------------------------------------------------------------|
0-0-0--0--x-0--0--x-0--x-0--0-0-0--x-0--0-0-0--x-x-x---------|


Chorus 2 

-------------------------------------------------------------------------|
-------------------------------------------------------------------------|
-----------------14-14-14-14-14-14-14-14---------------------------------|
-9-9-9-9-9-9-9-9-------------------------7-7-7-7-7-7-7-7-7-7-7-7-7-7-7-7-|
-9-9-9-9-9-9-9-9-9--9--9--9--9--9--9--9--7-7-7-7-7-7-7-7-9-9-9-9-9-9-9-9-|
-9-9-9-9-9-9-9-9-9--9--9--9--9--9--9--9--7-7-7-7-7-7-7-7-7-7-7-7-7-7-7-7-|


-------------------------------------------------------------------------|
-------------------------------------------------------------------------|
-----------------------------------------------------7-7-7-7-7-7-7-7-----|
-5-5-5-5-5-x-x-x-x-9-9-9-9-9-x-x-x-x-7-7-7-7-7-7-7-7-7-7-7-7-7-7-7-7-----|
-5-5-5-5-5-x-x-x-x-----------x-x-x-x-5-5-5-5-5-5-5-5-5-5-5-5-5-5-5-5-----|
-5-5-5-5-5-x-x-x-x-5-5-5-5-5-x-x-x-x-5-5-5-5-5-5-5-5---------------------|


---------------------------------|----------------10-10-10-10-10-10-10-10-|
---------------------------------|----------------------------------------|
---------------------------------|----------------7--7--7--7--7--7--7--7--|
-9-9-9-9-9-9-9-9-9-9-9-9-7-7-7-7-|5-5-5-5-5-5-5-5-------------------------|
-9-9-9-9-9-9-9-9-9-9-9-9-9-9-7-7-|5-5-5-5-5-5-5-5-5--5--5--5--5--5--5--5--|
-9-9-9-9-9-9-9-9-9-9-9-9-7-7-7-7-|5-5-5-5-5-5-5-5-------------------------|


-------------------------------------------------------------------------|
-------------------------------------------------------------------------|
-----------------------------------------------------7-7-7-7-7-7-7-7-----|
-5-5-5-5-5-x-x-x-x-9-9-9-9-9-x-x-x-x-7-7-7-7-7-7-7-7-5-5-5-5-5-5-5-5-----|
-5-5-5-5-5-x-x-x-x-----------x-x-x-x-5-5-5-5-5-5-5-5-5-5-5-5-5-5-5-5-----|
-5-5-5-5-5-x-x-x-x-5-5-5-5-5-x-x-x-x-5-5-5-5-5-5-5-5---------------------|


Solo 1

------------------------------------------|     |------|
-7-7-8-8-10-10-----7-7-8-8-10-10----------|     |------|
---------------9-9---------------9--------| x 4 |------|
------------------------------------------|     |--9~/-|
------------------------------------------|     |--9~/-|
------------------------------------------|     |--9~/-|


C-part

-------------------------------------------------------------------------|
-------------------------------------------------------------------------|
-------------------------------------------------------------------------| 
-------------------------------------------------------------------------|
-------------------------------------------------------------------------|
-9-9-9-9-9-9-9-7-12-12-12-12-12-12-12-12-5-5-5-5-5-5-5-5-2-2-2-2-2-2-2-2-|

-------------------------------------------------------------------------|
-------------------------------------------------------------------------|
-------------------------------------------------------------------------| 
---------------------------------------------------------------5---------|
-----------------------------------------------------------5-------7-----|
-9-9-9-9-9-9-9-7-12-12-12-12-12-12-12-12-5-5-5-5-5-5-5-5-5---5---5---5-7-|

-------------------------------------------------------------------------|
-------------------------------------------------------------------------|
-------------------------------------------------------------------------| 
-------------------------------------------------------------------------|
-------------------------------------------------------------------------|
-9-9-9-9-9-9-9-7-12-12-12-12-12-12-12-12-5-5-5-5-5-5-5-5-5-5-5-5-5-5-5-5-|

-------------------------------------------------------------------------|------|
---------------------------------------------------------8-8-8-8-8-8-8-8-|------|
-----------------------------------------7-7-7-7-7-7-7-7-----------------|------|
-9-9-9-9-9-9-9-7-12-12-12-12-12-12-12-12-5-5-5-5-5-5-5-5-5-5-5-5-5-5-5-5-|--9~/-| 
-------------------------------------------------------------------------|--9~/-|
-------------------------------------------------------------------------|--9~/-| 


Pré-Chorus 

--------------------------------------------------|
--------------------------------------------------|
-14-14-14-14-14-14-14-14-|14-14-14-14-14-14-14-14-|
-12-12-12-12-12-12-12-12-|12-12-12-12-12-12-12-12-|
-12-12-12-12-12-12-12-12-|12-12-12-12-12-12-12-12-|

|--------------------------------------------------------------------|
|--------------------------------------------------------------------|
|-7-7-7/9-9-9/11-11-11/12-12-12/-14-14-14/16-16-16/18-18-18/21-21-21-|
|--------------------------------------------------------------------|
|-5-5-5/7-7-7/9--9--9//10-10-10/-12-12-12/14-14-14/16-16-16/19-19-19-|
|--------------------------------------------------------------------|


Chorus 3 

-------------------------------------------------------------------------------|
---------------------------------------------------------10---10---10---10-----|
-----------------14-14-14-14-14-14-14-14--------------------9----9----9----9---|
-9-9-9-9-9-9-9-9-------------------------7-7-7-7-7-7-7-7-----------------------|
-9-9-9-9-9-9-9-9-9--9--9--9--9--9--9--9--7-7-7-7-7-7-7-7-----------------------|
-9-9-9-9-9-9-9-9-9--9--9--9--9--9--9--9--7-7-7-7-7-7-7-7-----------------------|


-------------------------------------------------------------------------|
-------------------------------------------------------------------------|
-----------------------------------------------------7-7-7-7-7-7-7-7-----|
-5-5-5-5-5-x-x-x-x-9-9-9-9-9-x-x-x-x-7-7-7-7-7-7-7-7-7-7-7-7-7-7-7-7-----|
-5-5-5-5-5-x-x-x-x-----------x-x-x-x-5-5-5-5-5-5-5-5-5-5-5-5-5-5-5-5-----|
-5-5-5-5-5-x-x-x-x-5-5-5-5-5-x-x-x-x-5-5-5-5-5-5-5-5---------------------|


---------------------------------|----------------10-10-10-10-10-10-10-10-|
---------------------------------|----------------------------------------|
---------------------------------|----------------7--7--7--7--7--7--7--7--|
-9-9-9-9-9-9-9-9-9-9-9-9-7-7-7-7-|5-5-5-5-5-5-5-5-------------------------|
-9-9-9-9-9-9-9-9-9-9-9-9-9-9-7-7-|5-5-5-5-5-5-5-5-5--5--5--5--5--5--5--5--|
-9-9-9-9-9-9-9-9-9-9-9-9-7-7-7-7-|5-5-5-5-5-5-5-5-------------------------|


-------------------------------------------------------------------------|
-------------------------------------------------------------------------|
-----------------------------------------------------7-7-7-7-7-7-7-7-----|
-5-5-5-5-5-x-x-x-x-9-9-9-9-9-x-x-x-x-7-7-7-7-7-7-7-7-5-5-5-5-5-5-5-5-----|
-5-5-5-5-5-x-x-x-x-----------x-x-x-x-5-5-5-5-5-5-5-5-5-5-5-5-5-5-5-5-----|
-5-5-5-5-5-x-x-x-x-5-5-5-5-5-x-x-x-x-5-5-5-5-5-5-5-5---------------------|


Solo 2

------------------------------------------|     
-7-7-8-8-10-10-----7-7-8-8-10-10----------|     
---------------9-9---------------9--------| x 4 
------------------------------------------|     
------------------------------------------|     
------------------------------------------|     


Outro

--------------------10-10-10-------12-12------|     |-------10-10------12-12-------12-12-------|
-7-7-7-8-8-10-10-10----------10-10-------10---|     |-10-10-------10-10------10-10-------------| 
----------------------------------------------| x 3 |------------------------------------------|
----------------------------------------------|     |-------------------------------------9~/--|
----------------------------------------------|     |-------------------------------------9~/--| 
----------------------------------------------|     |-------------------------------------9~/--|





Comments


Popular Disco Ensemble tabs & chords
Sleep On The Wheel Bass Tabs
Protector Chords
You Are The Dawn Chords
Drop Dead Casanova Tabs
Fresh New Blood Tabs
Human Cannonball Tabs
Sleep On The Wheel Tabs
We Might Fall Apart Tabs
Protector Ukulele
You Are The Dawn Ukulele


Song lyrics



↑ Back to top | Tablatures and chords are parodies/interpretations of the original songs. You may use it for private study, scholarship, research or language learning purposes only
© 2014 AZChords.com Contact us | Privacy policy | DMCA | Add/correct tabs | Request tabs | Top 50 tabs