>
 >
Fresh New Blood

Fresh New Blood Guitar Tabs

Disco Ensemble - Fresh New Blood chords, tabs, tablatures, lyrics

Guitar lessons | Add/correct | Request | Top 50 tabs Artists:  A B C D E F G H I J K L M N O P Q R S T U V W X Y Z 0-9

Fresh New Blood Guitar Tabs – Disco Ensemble

CD, Sheet music, Poster

Do you like Fresh New Blood? Share with your friends now
Tabs
                        DISCO ENSEMBLE: FRESH NEW BLOOD

Tuning: DADGBE

Intro/Verse

-----------------------------|--------------------------------|------------------------------|----------------|
-----------------------------|--------------------------------|------------------------------|----------------|
-----------------------------|--------------------------------|------------------------------|----------------|
------7-----------7--------|--------7---------------7-----|--------3------------3------|------3------------3--|
7-----------7--------------|10-----------10-------------|7------------7--------------|5------------5----------|
---7-----7-----7-----7---|-----7-----7------7------7--|----3-----3-----3-----3---|----0-----0-----0-----0-----|

PM____ ___________ _____________ ____________ ____________ ___


2. verse, end of 2nd round:

---------------------------------|
---------------------------------|
---------------------------------|
-------3------5-----3------------|
5--------------------------------|
----0-----0-----0------0---------|


Every verse, 3rd round:

--------------------------------|--------------------------------|----------------------------------------|------------------------|
--------------------------------|--------------------------------|----------------------------------------|------------------------|
--------------------------------|--------------------------------|----------------------------------------|------------------------|
--------7--------------7------|--------7--------------7------|----------10----------------10------|----------12----------------12--|
--------------------------------|--------------------------------|----------------------------------------|------------------------|
7--7--7--7--7--7--7--7--|7--7--7--7--7--7--7--7--|10-10-10-10-10-10-10-10-|12-12-12-12-12-12-12-12---------------------------------|

PM__   _______   _______  _______   _________   _________   _________   _________   _____


--------------------------------|---------------------------------|
8--8--8--8--8--8--8--8--|8--8--8--8--8--8--8----------------------|
--------------------------------|---------------------------------|
5--5--5--5--5--5--5--5--|5--5--5--5--5--5--5----------------------|
--------------------------------|---------------------------------|
--------------------------------|---------------------------------|

1. and 3. chorus (first two rows also second half of the intro)

--------------------------------|--------------------------------|--------------------------------|--|
--------------------------------|--------------------------------|--------------------------------|--|
9--9--9--9--9--9--9--9--|9--9--9--9--9--9--9--9--|9--9--5--5--7--7--5--5--|9--9--5--5--7--7--5--5----|
7--7--7--7--7--7--7--7--|7--7--7--7--7--7--7--7--|--------------------------------|------------------|
7--7--7--7--7--7--7--7--|7--7--7--7--7--7--7--7--|--------------------------------|------------------|
7--7--7--7--7--7--7--7--|7--7--7--7--7--7--7--7--|--------------------------------|------------------|


--------------------------------|--------------------------------|--------------------------------|--|
--------------------------------|--------------------------------|--------------------------------|--|
9--9--9--9--9--9--9--9--|9--9--9--9--9--9--9--9--|9--9--5--5--7--7--5--5--|-------5--5--7--7--5--5---|
7--7--7--7--7--7--7--7--|7--7--7--7--7--7--7--7--|--------------------------------|7--7--------------|
7--7--7--7--7--7--7--7--|7--7--7--7--7--7--7--7--|--------------------------------|------------------|
7--7--7--7--7--7--7--7--|7--7--7--7--7--7--7--7--|--------------------------------|------------------|

--------------------------------|------------------------------------|----------------------------------------|-------------|
--------------------------------|------------------------------------|----------------------------------------|-------------|
9--9--9--9--9--9--9--9--|9--9--9--9----------------------|----------------------------------------|12-12-12-12-12-12-12-12--|
7--7--7--7--7--7--7--7--|7--7--7--7--12-12-12-12-|10-10-10-10-10-10-10-10-|10-10-10-10-10-10-10-10--------------------------|
7--7--7--7--7--7--7--7--|7--7--7--7--10-10-10-10-|10-10-10-10-10-10-10-10-|10-10-10-10-10-10-10-10--------------------------|
7--7--7--7--7--7--7--7--|7--7--7--7---9---9---9---9--|10-10-10-10-10-10-10-10-|10-10-10-10-10-10-10-10----------------------|


--------------------------------|--------------------------------|--------------------------------|--|
--------------------------------|--------------------------------|5--5--5--5------------------|------|
7--7--7--7--7--7--7--7--|7--7--7--7--7--7--7--7--|----------------7--7--7--7--|5--5--5--5------------|
5--5--5--5--5--5--5--5--|5--5--5--5--5--5--5--5--|3--3--3--3--3--3--3--3--|3--3--3--3--7--7--7--7----|
5--5--5--5--5--5--5--5--|5--5--5--5--5--5--5--5--|3--3--3--3--3--3--3--3--|3--3--3--3--3--3--3--3----|
5--5--5--5--5--5--5--5--|5--5--5--5--5--5--5--5--|3--3--3--3--3--3--3--3--|3--3--3--3--3--3--3--3----|


2. chorus

--------------------------------|------------------------------------|--------------------------------|----|
--------------------------------|------------------------------------|--------------------------------|----|
9--9--9--9--9--9--9--9--|9--9--------9--9----------------|9--9--5--5--7--7--5--5--|9--9--5--5--7--7--5--5--|
7--7--7--7--7--7--7--7--|7--7--------7--7----------------|--------------------------------|----------------|
7--7--7--7--7--7--7--7--|7--7--10-10-7--7--10-10-|--------------------------------|------------------------|
7--7--7--7--7--7--7--7--|7--7---7---7--7--7---7---7--|--------------------------------|--------------------|


--------------------------------|------------------------------------|--------------------------------|------|
--------------------------------|------------------------------------|--------------------------------|8--8--|
9--9--9--9--9--9--9--9--|9--9--------9--9----------------|9--9--5--5--7--7--5--5--|-------5--5--7--7--5--5---|
7--7--7--7--7--7--7--7--|7--7--------7--7----------------|--------------------------------|------------------|
7--7--7--7--7--7--7--7--|7--7--10-10-7--7--10-10-|--------------------------------|--------------------------|
7--7--7--7--7--7--7--7--|7--7---7---7--7--7---7---7--|--------------------------------|----------------------|


--------------------------------|------------------------------------|----------------------------------------|-------------|
--------------------------------|------------------------------------|----------------------------------------|-------------|
9--9--9--9--9--9--9--9--|9--9--9--9----------------------|----------------------------------------|12-12-12-12-12-12-12-12--|
7--7--7--7--7--7--7--7--|7--7--7--7--12-12-12-12-|10-10-10-10-10-10-10-10-|10-10-10-10-10-10-10-10--------------------------|
7--7--7--7--7--7--7--7--|7--7--7--7--10-10-10-10-|10-10-10-10-10-10-10-10-|10-10-10-10-10-10-10-10--------------------------|
7--7--7--7--7--7--7--7--|7--7--7--7---9---9---9---9--|10-10-10-10-10-10-10-10-|10-10-10-10-10-10-10-10----------------------|

--------------------------------|--------------------------------|-------------------------|--|
--------------------------------|--------------------------------|5-\---------------------|---|
7--7--7--7--7--7--7--7--|7--7--7--7--7--7--7--7--|-------------------------|------------------|
5--5--5--5--5--5--5--5--|5--5--5--5--5--5--5--5--|3-\---------------------|-------------------|
5--5--5--5--5--5--5--5--|5--5--5--5--5--5--5--5--|3-\---------------------|-------------------|
5--5--5--5--5--5--5--5--|5--5--5--5--5--5--5--5--|3-\---------------------|-------------------|

C-part

-------------------------------------|-----------------------------------|-------------------------------------|--|
-------------------------------------|-----------------------------------|-------------------------------------|--|
12-12-12-9--9--9--10-10-|10-9--9--9--10-10-9--9--|12-12-12-9--9--9--10-10-|10-9--9--9--10-10-7--7-----------------|
-------------------------------------|-----------------------------------|-------------------------------------|--|
10-10-10-7--7--7---8---8--|-8--7--7--7---8---8--7--7--|10-10-10-7--7--7---8---8--|-8--7--7--7---8---8--5--5-------|
-------------------------------------|-----------------------------------|-------------------------------------|--|


--------------------------------|---------------------------------------|--------------------------------|------------------------------|
--------------------------------|---------------------------------------|--------------------------------|------------------------------|
9--9--9--9--9--9--9--9--|9-/12-12-12-12-12-12-12-|5--5--5--5--5--5--5--5--|5-/7--7--7--7--7--7------------------------------------------|
--------------------------------|---------------------------------------|--------------------------------|---------------------------7--|
7--7--7--7--7--7--7--7--|7-/10-10-10-10-10-10-10-|3--3--3--3--3--3--3--3--|3-/5--5--5--5--5--5------------------------------------------|
--------------------------------|---------------------------------------|--------------------------------|------------------------------|


-------------------------|-------------------------|--------------------------|------------------|
-------------------------|-------------------------|--------------------------|------------------|
-------------------------|-------------------------|--------------------------|------------------|
3-----------------------|------------------5-----|2------------------------|------------------0--|
-------------------------|-------------------------|--------------------------|------------------|
-------------------------|-------------------------|--------------------------|------------------|

(tremolo)

-------------------------|-------------------------|-------------------------|--|
-------------------------|-------------------------|-------------------------|--|
-------------------------|-------------------------|-------------------------|--|
7-----------------------|------------------7-----|3-----------------------|-----|
-------------------------|-------------------------|-------------------------|--|
-------------------------|-------------------------|-------------------------|--|


--------------------------------|--------------------------------|--------------------------------|----------------|
--------------------------------|--------------------------------|--------------------------------|----------------|
--------------------------------|--------------------------------|--------------------------------|----------------|
3--3--3--3--3--3--3--3--|3--3--3--3--3--3--3--3--|--------------------------------|--------------------------------|
5--5--5--5--5--5--5--5--|5--5--5--5--5--5--5--5--|7--7--7--7--7--7--7--7--|7--7--7--7--7--7--7--7------------------|
--------------------------------|--------------------------------|5--5--5--5--5--5--5--5--|5--5--5--5--5--5--5--5--|

PM_______________________________________________________________


--------------------------------|--------------------------------|---------------------------|------------------|
--------------------------------|--------------------------------|---------------------------|------------------|
--------------------------------|--------------------------------|---------------------------|------------------|
--------------------------------|--------------------------------|3--------3--------3-----|---3--------3-----3--|
7--7--7--7--7--7--7--7--|7--7--7--7--7--7--7--7--|3--------3--------3-----|---3--------3-----3------------------|
7--7--7--7--7--7--7--7--|7--7--7--7--7--7--7--7--|3--------3--------3-----|---3--------3-----3------------------|

open PM slowly


OUTRO


------------------------------|------------------------------|----------------------------------------|---------------------------------|
------------------------------|------------------------------|----------------------------------------|---------------------------------|
------------------------------|------------------------------|----------------------------------------|--------------------14-14-14-14--|
7--7-----7--7--7-----7--|7--7-----7--7--7-----7--|14-14-14-14-12-12-12-12-|10-10-10-10--------------------------------------------------|
------------------------------|------------------------------|10-10-10-10-10-10-10-10-|10-10-10-10-12-12-12-12--------------------------|
7--7-----7--7--7-----7--|7--7-----7--7--7-----7--|10-10-10-10-10-10-10-10-|10-10-10-10-10-10-10-10--------------------------------------|


------------------------------|------------------------------|-------------------------|--|
------------------------------|------------------------------|-------------------------|--|
------------------------------|------------------------------|-------------------------|--|
5--5-----5--5--5-----5--|5--5-----5--5--5-----5--|3-----------------------|---------------|
------------------------------|------------------------------|3-----------------------|---|
5--5-----5--5--5-----5--|5--5-----5--5--5-----5--|3-----------------------|---------------|


--------------------------|--------------------------|
-8-----------------------|---------------------------|
--------------------------|--------------------------|
-7-----------------------|---------------------------|
10----------------------|----------------------------|
-7-----------------------|---------------------------|





Comments


Popular Disco Ensemble tabs & chords
Bay Of Biscay Bass Tabs
Protector Bass Tabs
Sleep On The Wheel Bass Tabs
Dynamite Days Tabs
Human Cannonball Tabs
Magic Recoveries Tabs
Magic Recoveries 1 Tabs
Threat Letter Typewriter Tabs
We Might Fall Apart Tabs
Protector Ukulele


Song lyrics



↑ Back to top | Tablatures and chords are parodies/interpretations of the original songs. You may use it for private study, scholarship, research or language learning purposes only
© 2014 AZChords.com Contact us | Privacy policy | DMCA | Add/correct tabs | Request tabs | Top 50 tabs