>
 >
First Aid Kit 1

First Aid Kit 1 Guitar Tabs

Disco Ensemble - First Aid Kit 1 chords, tabs, tablatures, lyrics

Guitar lessons | Add/correct | Request | Top 50 tabs Artists:  A B C D E F G H I J K L M N O P Q R S T U V W X Y Z 0-9

First Aid Kit 1 Guitar Tabs – Disco Ensemble

CD, Sheet music, Poster

Do you like First Aid Kit 1? Share with your friends now
TabsTabs v2
                                DISCO ENSEMBLE: FIRST AID KIT

Tuning: DADGBE


Intro
------------------------------------------------|------------------------------------------------|
------------------------------------------------|------------------------------------------------|
---------0-----------------------0--------------|---------0-----------------------0--------------|
---12----------12----12----16----------16----16-|---17----------17----17----17----------17----17-|
------------------------------------------------|------------------------------------------------|
9-----9-----------9-----12----12----------12----|14----14----------14----14----14----------14----|
Let ring

------------------------------------------------|------------------------------------------------------|
------------------------------------------------|------------------------------------------------------|
---------0-----------------------0--------------|---------0-----------------0--------------------------|
---12----------12----12----16----------16----16-|---17----------17----17-------16----------------------|
------------------------------------------------|----------------------------------17------------------|
9-----9-----------9-----12----12----------12----|14----14----------14----14----------------------------|


1.Verse
------------------------------------------------|------------------------------------------------|
------------------------------------------------|------------------------------------------------|
---------0-----------------------0--------------|---------0-----------------------0--------------|
---12----------12----12----16----------16----16-|---17----------17----17----17----------17-------|
------------------------------------------------|------------------------------------------14----|
9-----9-----------9-----12----12----------12----|14----14----------14----14----14-------------14-|

------------------------------------------------|------------------------------------------------|
------------------------------------------------|------------------------------------------------|
---------0-----------------------0--------------|---------0-----------------------0--------------|
---12----------12----12----16----------16----16-|---17----------17----17----19----------19----19-|
------------------------------------------------|------------------------------------------------|
9-----9-----------9-----12----12----------12----|14----14----------14----14----14----------14----|

------------------------------------------------|------------------------------------------------|
------------------------------------------------|------------------------------------------------|
---------0-----------------------0--------------|---------0-----------------------0--------------|
---12----------12----12----16----------16----16-|---17----------17----17----17----------17----17-|
------------------------------------------------|------------------------------------------------|
9-----9-----------9-----12----12----------12----|14----14----------14----14----14----------14----|

------------------------------------------------|------------------------------------------------|
------------------------------------------------|------------------------------------------------|
---------0-----------------------0--------------|---------0--------------------------------------|
---12----------12----12----16----------16----16-|---12----------12----12-------12----12----12----|
------------------------------------------------|---------------------------12----12----12----12-|
9-----9-----------9-----12----12----------12----|14----14----------14----14----------------------|


Pre-chorus
------------------------------------------------|------------------------------------------------|
------------------------------------------------|------------------------------------------------|
------------------------------------------------|------------------------------------------------|
5--5--5--5--5--5--5--5--5--5--5--5--5--5--5--5--|7--7--7--7--7--7--7--7--7--7--7--7--7--7--7--7--|
5--5--5--5--5--5--5--5--5--5--5--5--5--5--5--5--|5--5--5--5--5--5--5--5--5--5--5--5--5--5--5--5--|
5--5--5--5--5--5--5--5--5--5--5--5--5--5--5--5--|5--5--5--5--5--5--5--5--5--5--5--5--5--5--5--5--|

------------------------------------------------|------------------------------------------------|
------------------------------------------------|------------------------------------------------|
------------------------------------------------|6--6--6--6--6--6--6--6--6--6--6--6--6--6--6-----|
9--9--9--9--9--9--9--9--9--9--9--9--9--9--9--9--|5--5--5--5--5--5--5--5--5--5--5--5--5--5--5-----|
5--5--5--5--5--5--5--5--5--5--5--5--5--5--5--5--|5--5--5--5--5--5--5--5--5--5--5--5--5--5--5-----|
5--5--5--5--5--5--5--5--5--5--5--5--5--5--5--5--|5--5--5--5--5--5--5--5--5--5--5--5--5--5--5-----|


2.Verse
------------------------------------------------|------------------------------------------------|
------------------------------------------------|------------------------------------------------|
---------0-----------------------0--------------|---------0-----------------------0--------------|
---12----------12----12----16----------16----16-|---17----------17----17----17----------17-------|
------------------------------------------------|------------------------------------------14----|
9-----9-----------9-----12----12----------12----|14----14----------14----14----14-------------14-|

------------------------------------------------|------------------------------------------------|
------------------------------------------------|------------------------------------------------|
---------0-----------------------0--------------|---------0-----------------------0--------------|
---12----------12----12----16----------16----16-|---17----------17----17----19----------19----19-|
------------------------------------------------|------------------------------------------------|
9-----9-----------9-----12----12----------12----|14----14----------14----14----14----------14----|

------------------------------------------------|------------------------------------------------|
---15-------15-------15-------15-------15-------|15-------15-------15-------15----------15-------|
------12-------12-------12-------12-------12----|---12-------12-------12-------12----12----12----|
16-------16-------16-------16-------16-------16-|------16-------16-------16-------16----------16-|
------------------------------------------------|------------------------------------------------|
------------------------------------------------|------------------------------------------------|

------------------------------------------------|------------------------------------------------|
------------------------------------------------|------------------------------------------------|
---------0-----------------------0--------------|---------0--------------------------------------|
---12----------12----12----16----------16----16-|---12----------12----12-------12----12----12----|
------------------------------------------------|---------------------------12----12----12----12-|
9-----9-----------9-----12----12----------12----|14----14----------14----14----------------------|


Chorus
------------------------------------------------|------------------------------------------------|
------------------------------------------------|------------------------------------------------|
4--4--4--4--4--4--4--4--7--7--7--7--7--7--7--7--|7--7--7--7--7--7--------7--7--7--7--6--6--6--6--|
4--4--4--4--4--4--4--4--7--7--7--7--7--7--7--7--|5--5--5--5--5--5--------5--5--5--5--5--5--5--5--|
2--2--2--2--2--2--2--2--5--5--5--5--5--5--5--5--|7--7--7--7--7--7--------5--5--5--5--5--5--5--5--|
------------------------------------------------|------------------4--4--5--5--5--5--5--5--5--5--|

------------------------------------------------|------------------------------------------------|
------------------------------------------------|------------------------------------------------|
7--7--7--7--7--7--7--7--7--7--7--7--7--7--7--7--|7--7--7--7--7--7--------7--7--7--7--6--6--6--6--|
7--7--7--7--7--7--7--7--7--7--7--7--7--7--7--7--|5--5--5--5--5--5--------5--5--5--5--5--5--5--5--|
------------------------5--5--5--5--5--5--5--5--|7--7--7--7--7--7--------5--5--5--5--5--5--5--5--|
9--9--9--9--9--9--9--9--------------------------|------------------4--4--5--5--5--5--5--5--5--5--|


Guitar solo
0--------------0--------------0-----------------|0--------------0--------------0-----------------|
---8--------------8--------------8--------------|---8--------------8--------------8--------------|
------11-------------11-------------11----------|------11-------------11-------------11----------|
---------12-9-----------12-9-----------12-9--7--|---------12-9-----------12-9-----------12-9--/--|
------------------------------------------------|------------------------------------------------|
------------------------------------------------|------------------------------------------------|

---------------------21-21-------------------21-|21-------------------21-21----------------------|
---------------------------------17-17----------|---------17-17-------------------17-17----17----|
---------17-17-19-19-------19-19-------19-19----|---19-19-------19-19-------19-19-------19----19-|
19-19-19----------------------------------------|------------------------------------------------|
------------------------------------------------|------------------------------------------------|
------------------------------------------------|------------------------------------------------|


------------------------------------------------|------------------------------------------------|
17--------------------------------------17-17---|------------------------------------------------|
19b21--------------------------------------19---|19----------------------------------------------|
------------------------------------------------|------------------------------------------------|
------------------------------------------------|------------------------------------------------|
------------------------------------------------|------------------------------------------------|
   hold_bend_________________________________....

------------------------------------------------|------------------------------------------------|
------------------------------------------------|------------------------------------------------|
17--------------------16------------------------|14-----------------------11-----b12-----11------|
------------------------------------------------|------------------------------------------------|
------------------------------------------------|------------------------------------------------|
------------------------------------------------|------------------------------------------------|

3.Verse
------------------------------------------------|------------------------------------------------|
------------------------------------------------|------------------------------------------------|
---------0-----------------------0--------------|---------0-----------------------0--------------|
---12----------12----12----16----------16----16-|---17----------17----17----17----------17-------|
------------------------------------------------|------------------------------------------14----|
9-----9-----------9-----12----12----------12----|14----14----------14----14----14-------------14-|

------------------------------------------------|------------------------------------------------|
------------------------------------------------|------------------------------------------------|
---------0-----------------------0--------------|---------0--------------14----12----11----------|
---12----------12----12----16----------16----16-|---12----------12----12-------------------14----|
------------------------------------------------|------------------------------------------------|
9-----9-----------9-----12----12----------12----|14----14----------14-------14----14----14----14-|

------------------------------------------------|------------------------------------------------|
------------------------------------------------|------------------------------------------------|
---------0-----------------------0--------------|---------0-----------------------0--------------|
---12----------12----12----16----------16----16-|---17----------17----17----17----------17----17-|
------------------------------------------------|------------------------------------------------|
9-----9-----------9-----12----12----------12----|14----14----------14----14----14----------14----|

------------------------------------------------|------------------------------------------------|
------------------------------------------------|------------------------------------------------|
---------0-----------------------0--------------|---------0--------------------------------------|
---12----------12----12----16----------16----16-|---12----------12----12-------12----12----12----|
------------------------------------------------|---------------------------12----12----12----12-|
9-----9-----------9-----12----12----------12----|14----14----------14----14----------------------|

Ending
--------------|
--------------|
-------11-----|
----12--------|
--9-----------|
9-------------|


Enjoi!

Please, if you get the chance, listen to every single little song by this band!!
They're amazing and they deserve alot more publicity than they have at this moment in time!

Cheers!





Comments


Popular Disco Ensemble tabs & chords
Life Of Crime Bass Tabs
Protector Bass Tabs
Second Soul Bass Tabs
Sleep On The Wheel Bass Tabs
Black Euro Tabs
Fresh New Blood Tabs
Magic Recoveries Tabs
Magic Recoveries 1 Tabs
This Is My Head Exploding Tabs
Protector Ukulele


Song lyrics



↑ Back to top | Tablatures and chords are parodies/interpretations of the original songs. You may use it for private study, scholarship, research or language learning purposes only
© 2014 AZChords.com Contact us | Privacy policy | DMCA | Add/correct tabs | Request tabs | Top 50 tabs