» » »

Disco Ensemble, First Aid Kit Tabs (ver.1)

Artists:  A B C D E F G H I J K L M N O P Q R S T U V W X Y Z # 

First Aid Kit Tabs (ver.1)

Disco Ensemble Tabs
 Rating:
4.3/5 (6 votes)
First Aid Kit lessons Tabs too difficult? Try these video lessons and learn fast
1
                Disco Ensemble
"First Aid Kit"


Standard tuning (EADGBe)

Comment:
--------
 This is a great song and I've been a fan of Disco Ensemble ever since i saw
 them playing live in Gothenburg on The Antidote Tour of 2006.

 Notes: 
  1) I'm pretty sure the background at the end of
     the solo is played by the bass.
  2) The Ending part is played slowly over the last
     notes of solo at the end of the song.

 / - Slide up
 \ - Slide down
 h - Hammer-on
 p - Pull-off
 ~ - Vibrato
 b - Bend to
 r - Return
 x - Mute

 Enjoy! Remember to put some stars on it to express what you think of it. ;)

   // Etni3s
--------


Intro
-----

e|---------------------------------------------------------------------------------|
B|---3-------3---3---7-------7---7---8-------8---8---8-------8---8---3-------3---3-|
G|-------0---------------0---------------0---------------0---------------0---------|
D|---------------------------------------------------------------------------------|
A|-2---2-------2--/5---5-------5--/7---7-------7---7---7-------7--\2---2-------2---|
E|---------------------------------------------------------------------------------|

e|------------------------------------------|
B|----7-------7---7---8-------8---8-----7---|
G|--------0---------------0-----------0---7-|
D|------------------------------------------|
A|-/5---5-------5---7---7-------7---7-------|
E|------------------------------------------|


Verse 1
-------

e|---------------------------------------------------------------------------------|
B|---3-------3---3---7-------7---7---8-------8---8---8-------8-------3-------3---3-|
G|-------0---------------0---------------0---------------0---------------0---------|
D|-------------------------------------------------------------9-------------------|
A|-2---2-------2--/5---5-------5--/7---7-------7---7---7----------\2---2-------2---|
E|---------------------------------------------------------------------------------|

e|-----------------------------------------------------|
B|----7-------7---7---8-------8---8---10-------10---10-|
G|--------0---------------0----------------0-----------|
D|-----------------------------------------------------|
A|-/5---5-------5--/7---7-------7---7----7--------7----|
E|-----------------------------------------------------|

e|---------------------------------------------------------------------------------|
B|---3-------3---3---7-------7---7---8-------8---8---8-------8---8---3-------3---3-|
G|-------0---------------0---------------0---------------0---------------0---------|
D|---------------------------------------------------------------------------------|
A|-2---2-------2--/5---5-------5--/7---7-------7---7---7-------7--\2---2-------2---|
E|---------------------------------------------------------------------------------|

e|--------------------------------------------------|
B|----7-------7---7---3-------3---3-----3---3---3---|
G|--------0---------------0-----------0---0---0---0-|
D|------------------2---2-------2---2---------------|
A|-/5---5-------5-----------------------------------|
E|--------------------------------------------------|


Pre Chorus 1
------------

e|---------------------------------------------------------------------------------|
B|---------------------------------------------------------------------------------|
G|-------------------------------------------------4---------------4-4-4-4-4-4-4-4-|
D|-5-5-5-5-5-5-5-5-5-5-5-5-5-5-5-5-7-7-7-7-7-7-7-7-x-7-7-7-7-7-7-7-x-x-x-x-x-x-x-x-|
A|-5-5-5-5-5-5-5-5-5-5-5-5-5-5-5-5-5-5-5-5-5-5-5-5-5-5-5-5-5-5-5-5-5-5-5-5-5-5-5-5-|
E|-3-3-3-3-3-3-3-3-3-3-3-3-3-3-3-3-3-3-3-3-3-3-3-3-3-3-3-3-3-3-3-3-3-3-3-3-3-3-3-3-|

e|-----------------------------------------------|
B|-----------------------------------------------|
G|-4-4-4-4-4-4-4-4-6-6-6-6-6-6-6-6-6-6-6-6-6-6-6-|
D|-x-x-x-x-x-x-x-x-x-x-x-x-x-x-x-x-x-x-x-x-x-x-x-|
A|-5-5-5-5-5-5-5-5-5-5-5-5-5-5-5-5-5-5-5-5-5-5-5-|
E|-3-3-3-3-3-3-3-3-3-3-3-3-3-3-3-3-3-3-3-3-3-3-3-|


Verse 2
-------

e|---------------------------------------------------------------------------------|
B|---3-------3---3---7-------7---7---8-------8---8---8-------8-------3-------3---3-|
G|-------0---------------0---------------0---------------0---------------0---------|
D|-------------------------------------------------------------9-------------------|
A|-2---2-------2--/5---5-------5--/7---7-------7---7---7----------\2---2-------2---|
E|---------------------------------------------------------------------------------|

e|-----------------------------------------------------|
B|----7-------7---7---8-------8---8---10-------10---10-|
G|--------0---------------0----------------0-----------|
D|-----------------------------------------------------|
A|-/5---5-------5--/7---7-------7---7----7--------7----|
E|-----------------------------------------------------|

e|-10-----10-----10-----10-----10-----10-----10-----10-----10-------10-----|
B|----8p7----8p7----8p7----8p7----8p7----8p7----8p7----8p7----8p7h8----8p7-|
G|-------------------------------------------------------------------------|
D|-------------------------------------------------------------------------|
A|-------------------------------------------------------------------------|
E|-------------------------------------------------------------------------|

e|-----------------------------------------------------------------|
B|---3-------3---3---7-------7---7---3-------3---3-----3---3---3---|
G|-------0---------------0---------------0-----------0---0---0---0-|
D|---------------------------------2---2-------2---2---------------|
A|-2---2-------2--/5---5-------5-----------------------------------|
E|-----------------------------------------------------------------|


Pre Chorus 2
------------

e|---------------------------------------------------------------------------------|
B|---------------------------------------------------------------------------------|
G|-----------------------------------------------------------------4-4-4-4-4-4-4-4-|
D|-5-5-5-5-5-5-5-5-5-5-5-5-5-5-5-5-7-7-7-7-7-7-7-7-7-7-7-7-7-7-7-7-x-x-x-x-x-x-x-x-|
A|-5-5-5-5-5-5-5-5-5-5-5-5-5-5-5-5-5-5-5-5-5-5-5-5-5-5-5-5-5-5-5-5-5-5-5-5-5-5-5-5-|
E|-3-3-3-3-3-3-3-3-3-3-3-3-3-3-3-3-3-3-3-3-3-3-3-3-3-3-3-3-3-3-3-3-3-3-3-3-3-3-3-3-|

e|-----------------------------------------------|
B|-----------------------------------------------|
G|-4-4-4-4-4-4-4-4-6-6-6-6-6-6-6-6-6-6-6-6-6-6-6-|
D|-x-x-x-x-x-x-x-x-x-x-x-x-x-x-x-x-x-x-x-x-x-x-x-|
A|-5-5-5-5-5-5-5-5-5-5-5-5-5-5-5-5-5-5-5-5-5-5-5-|
E|-3-3-3-3-3-3-3-3-3-3-3-3-3-3-3-3-3-3-3-3-3-3-3-|


Chorus
------

e|-----------------------------------------------------------------|
B|-----------------3-3-3-3-3-3-3-3-3-3-3-3-3-3---------------------|
G|-4-4-4-4-4-4-4-4-2-2-2-2-2-2-2-2-0-0-0-0-0-0-----4-4-4-4-6-6-6-6-|
D|-4-4-4-4-4-4-4-4-0-0-0-0-0-0-0-0-2-2-2-2-2-2-4-4-5-5-5-5-5-5-5-5-|
A|-2-2-2-2-2-2-2-2-----------------2-2-2-2-2-2-4-4-5-5-5-5-5-5-5-5-|
E|---------------------------------0-0-0-0-0-0-2-2-3-3-3-3-3-3-3-3-|

e|-----------------------------------------------------------------|
B|-3-3-3-3-3-3-3-3-3-3-3-3-3-3-3-3-3-3-3-3-3-3---------------------|
G|-4-4-4-4-4-4-4-4-2-2-2-2-2-2-2-2-0-0-0-0-0-0-----4-4-4-4-6-6-6-6-|
D|-4-4-4-4-4-4-4-4-0-0-0-0-0-0-0-0-2-2-2-2-2-2-4-4-5-5-5-5-5-5-5-5-|
A|-2-2-2-2-2-2-2-2-----------------2-2-2-2-2-2-4-4-5-5-5-5-5-5-5-5-|
E|---------------------------------0-0-0-0-0-0-2-2-3-3-3-3-3-3-3-3-|


Solo
----

e|--------------------------------------------------------------------------------|
B|--------------------------------------------------------------------------------|
G|-9-12-11------9-12-11------9-12-11---------9-12-11------9-12-11------9-12-11----|
D|---------12-9---------12-9---------12-9------------12-9---------12-9---------12-|
A|----------------------------------------12--------------------------------------|
E|--------------------------------------------------------------------------------|

e|---------------------------22-22-------------------22-22-------------------22-22-|
B|---------------------17-17-------17-17-19-19-17-17-------17-17-19-19-17-17-------|
G|------16-16-16-19-19-------------------------------------------------------------|
D|-9/16----------------------------------------------------------------------------|
A|---------------------------------------------------------------------------------|
E|---------------------------------------------------------------------------------|

e|-----------------------------------------------------------------------------|
B|-17-17-19-19-17-19-17-17b19~~~~~~~~19~~~17~~~~~~~~\15~~\14~~\10~~\7~~b8~~r---|
G|-----------------------------------------------------------------------------|
D|-----------------------------------------------------------------------------|
A|-----------------------------------------------------------------------------|
E|-----------------------------------------------------------------------------|


Verse 3
-------

e|---------------------------------------------------------------------------------|
B|---3-------3---3---7-------7---7---8-------8---8---8-------8-------3-------3---3-|
G|-------0---------------0---------------0---------------0---------------0---------|
D|-------------------------------------------------------------9-------------------|
A|-2---2-------2--/5---5-------5--/7---7-------7---7---7----------\2---2-------2---|
E|---------------------------------------------------------------------------------|

e|----------------------------------5---3---2-----|
B|----7-------7---7---3-------3-----------------5-|
G|--------0---------------0-----------------------|
D|------------------2---2-------2-----------------|
A|-/5---5-------5---------------------------------|
E|------------------------------------------------|

e|---------------------------------------------------------------------------------|
B|---3-------3---3---7-------7---7---8-------8---8---8-------8---8---3-------3---3-|
G|-------0---------------0---------------0---------------0---------------0---------|
D|---------------------------------------------------------------------------------|
A|-2---2-------2--/5---5-------5--/7---7-------7---7---7-------7--\2---2-------2---|
E|---------------------------------------------------------------------------------|

e|--------------------------------------------------|
B|----7-------7---7---3-------3---3-----3---3---3---|
G|--------0---------------0-----------0---0---0---0-|
D|------------------2---2-------2---2---------------|
A|-/5---5-------5-----------------------------------|
E|--------------------------------------------------|


Ending
------

e|--------------2-|
B|----------3-----|
G|-/4-------------|
D|------4---------|
A|----------------|
E|----------------|


Song Progression
----------------

Intro
Verse 1
Pre Chorus 1
Verse 2
Pre Chorus 2
Chorus
Solo
Verse 3
Pre Chorus 2
Chorus
Solo (Ending)
            
Submit corrections

comments powered by Disqus
↑ Back to top | Disco Ensemble Tabs for First Aid Kit. Lyrics for acoustic guitar and electric guitar. 1 Tablatures and chords are parodies/interpretations of the original songs. You may use it for private study, scholarship, research or language learning purposes only