» » »

Disco Ensemble, Dynamite Days Tabs (ver.1)

Artists:  A B C D E F G H I J K L M N O P Q R S T U V W X Y Z # 

Dynamite Days Tabs (ver.1)

Disco Ensemble Tabs
Rating:
5/5 (1 vote)
Dynamite Days lessons Tabs too difficult? Try these video lessons and learn fast
                
*tuning - drop D*

/main part
|--------------------------------------------------|
|--------------------------------------------------|
|--5-5-5-5-5-3-/-8-8-8-8-8-8-----------------------|
|--5-5-5-5-5-3-/-8-8-8-8-8-8-8-8-8-8-8-8-8-8-8-8---|
|--3-3-3-3-3-1-/-6-6-6-6-6-6-5-5-5-5-5-8-8-8-8-8---|
|----------------------------5-5-5-5-5-8-8-8-8-8---|

/verse
|----------------------------------------------------------------|
|----------------------------------------------------------------|
|--17--17--17--17--15--15--15--15--12--12--12--12--10--10--10--10|
|---x---x---x---x---x---x---x---x---x---x---x---x---x---x---x--x-|
|--15--15--15--15--13--13--13--13--10--10--10--10---8---8---8--8-|
|----------------------------------------------------------------|

|--------------------------------------------------------------------|
|--------------------------------------------------------------------|
|--17--17--17--20-19---15--15--15--15--12--12--12--12--10--10--10--10|
|---x---x---x---x--x----x---x---x---x---x---x---x---x---x---x---x---x|
|--15--15--15--18-17---13--13--13--13--10--10--10--10---8---8---8--8-|
|--------------------------------------------------------------------|

/prechorus
|------------------------------------------------|
|------------------------------------------------|
|--5-5-5-5-5---8-8-8-8-8-8-----------------------|
|--5-5-5-5-5---8-8-8-8-8-8-8-8-8-8-8---8-8-8-8---|
|--3-3-3-3-3---6-6-6-6-6-6-5-5-5-5-5---8-8-8-8---|
|--------------------------5-5-5-5-5---8-8-8-8---|
___ ___________ ______pm___ ___________ _________

/chorus
|----------------------------------------------|
|---------------------4-4-4-4--6-6-6-6---------|
|--------------------------------------7-7-----|
|--6-6-6-6-6--3-3-3-3-5-5-5-5--5-5-5-5-5-5-----|
|--6-6-6-6-6--3-3-3-3-3-3-3-3--3-3-3-3-3-3--6-5|
|--6-6-6-6-6--3-3-3-3--------------------------|


/bridge
|-----------------------------------------------------|
|-----------------------------------------------------|
|-----------------------------------------------------|
|-6-6-6-6-8-8-8-8-5-5-5-5-8-8-8-8---------------------|
|-6-6-6-6-8-8-8-8-5-5-5-5-6-6-6-6-------------8-8-8---|
|-6-6-6-6-8-8-8-8-5-5-5-5-6-6-6-6-6-6-6-8-8-8---------|

The ending is just the intro/main part with octaves.
            

comments powered by Disqus
↑ Back to top | Disco Ensemble Tabs for Dynamite Days. Lyrics for acoustic guitar and electric guitar. Tablatures and chords are parodies/interpretations of the original songs. You may use it for private study, scholarship, research or language learning purposes only