>
 >
Drop Dead Casanova

Drop Dead Casanova Guitar Tabs

Disco Ensemble - Drop Dead Casanova chords, tabs, tablatures, lyrics

Guitar lessons | Add/correct | Request | Top 50 tabs Artists:  A B C D E F G H I J K L M N O P Q R S T U V W X Y Z 0-9

Drop Dead Casanova Guitar Tabs – Disco Ensemble

CD, Sheet music, Poster

Do you like Drop Dead Casanova? Share with your friends now
Bass TabsTabs
                                DISCO ENSEMBLE: DROP DEAD, CASANOVA

Tuning: DADGBE

Intro/post-chorus

-----------------------------|------------------------------|-----------------------------|--------|
-----------------------------|------------------------------|-----------------------------|--------|
-----------------------------|------------------------------|-----------------------------|--------|
9--9--9--9--9--9--9--9--|7--7--7--7--7--7--7--7--|4--4--4--4--4--4--4--4--|5--5--5--5--5--5--5--5--|
-----------------------------|------------------------------|-----------------------------|--------|
9--9--9--9--9--9--9--9--|7--7--7--7--7--7--7--7--|4--4--4--4--4--4--4--4--|5--5--5--5--5--5--5--5--|

-----------------------------|------------------------------|-----------------------------|---|
-----------------------------|------------------------------|-----------------------------|---|
-----------------------------|------------------------------|-----------------------------|---|
9--9--9--9--9--9--9--9--|7--7--7--7--7--7--7--7--|4--4--4--4--4--4--4--4--|5------------------|
-----------------------------|------------------------------|-----------------------------|5--|
9--9--9--9--9--9--9--9--|7--7--7--7--7--7--7--7--|4--4--4--4--4--4--4--4--|5------------------|


Intro-synth (arranged for guitar)

----------------------------|-------------------------|----------------------------|---------------|
----------------------------|-------------------------|----------------------------|---------------|
----------------------------|-------------------------|----------------------------|---------------|
------11----11----11----|-------------------------|-----11----11----11-----|9-----11-----11-12-11--|
9--------------------------|11----------------------|12-------------------------|------------------|
----------------------------|-------------------------|----------------------------|---------------|


----------------------------|--------------------------|----------------------------|--|
----------------------------|--------------------------|----------------------------|--|
----------------------------|--------------------------|----------------------------|--|
------11----11----11----|--------------------------|-----11----11----11-----|9-----1---|
9---------------------------|11----------------------|12-------------------------|-----|
----------------------------|--------------------------|----------------------------|--|


Verse

------------------------------|---------------------------|---------------------------|------------------------|
------------------------------|---------------------------|---------------------------|------------------------|
--------------6--------------|--------------6------------|-------------6------------|------------------7-------|
-------0---------0-----0----|-------0--------0-----0--|------0---------0-----0--|----------0----------0-----0--|
------------------------------|---------------------------|9--9-----9--------9------|10-10-----10-------10-----|
9--9-----9--------9--------|7--7------7--------7-----|---------------------------|-----------------------------|

--------------------------|--------------------------|---------------------------|----------------------|
--------------------------|--------------------------|---------------------------|----------------------|
------------6------------|------------6-------------|-------------6------------|-----------------7------|
------0--------0-----0--|------0--------0-----0--|-------0---------0-----0-|--------0-----------0----0--|
--------------------------|--------------------------|9--9-----9--------9-----|10-10-----10-------10----|
9--9-----9--------9-----|7--7-----7--------7-----|------------------------|-----------------------------|

---------------------------|---------------------------|---------------------------|-----------------------|
---------------------------|---------------------------|---------------------------|-----------------------|
-------------7------------|--------------9------------|-------------9------------|-----------------7-------|
-------0--------0-----0--|-------0--------0-----0--|-------0--------0-----0--|---------0-----------0----0--|
---------------------------|---------------------------|9--9-----9--------9------|10-10-----10-------10----|
9--9-----9--------9-----|7--7-----7--------7------|---------------------------|----------------------------|


---------------------------|---------------------------|---------------------------|---------------|
---------------------------|---------------------------|---------------------------|---------------|
--------------6-----------|-------------6-------------|-------------6------------|-----------------|
-------0--------0-----0--|-------0--------0-----0--|-------0--------0-----0--|---------------------|
---------------------------|---------------------------|9--9-----9--------9-----|------------------|
9--9-----9--------9-----|7--7-----7--------7------|--------------------------|5--5--5--5--5--5--5--|

Pre-Chorus

----------------------------|----------------------------|----------------------------|-------------------------|
----------------------------|----------------------------|----------------------------|-------------------------|
7--7--7-----7--7--7-----|6--6--6-----6--6--6-----|6--6--6-----6--6--6-----|-------------------------------------|
----------------------------|----------------------------|----------------------------|-7---9---9-----7---9--9--|
----------------------------|----------------------------|9--9--9-----9--9--9-----|10-10-10----10-10-10---------|
9--9--9-----9--9--9-----|7--7--7-----7--7--7-----|----------------------------|---------------------------------|

----------------------------|----------------------------|-----------------------------|----------------|
----------------------------|----------------------------|-----------------------------|----------------|
7--7--7-----7--7--7-----|9--9--9-----9--9--9-----|-----------------------------|------------------------|
----------------------------|----------------------------|-----------------------------|----------------|
----------------------------|----------------------------|4--4--4--4--4--4--4--4--|4--4--4--4--4--4--4--|
9--9--9-----9--9--9-----|7--7--7-----7--7--7-----|4--4--4--4--4--4--4--4--|4--4--4--4--4--4--4----------|

                                                                                        PM____________________..........

Chorus

--------------------------|--------------------------|-----------------------------|---------------|
--------------------------|--------------------------|-----------------------------|---------------|
7--7--7-----------------|4--4--4-----------------|4--4--4--4--4--4--4--4--|4--4--4--4--4--4--4--4--|
5--5--5-----------------|2--2--2-----------------|4--4--4--4--4--4--4--4--|4--4--4--4--4--4--4--4--|
5--5--5-----------------|2--2--2-----------------|2--2--2--2--2--2--2--2--|2--2--2--2--2--2--2--2--|
5--5--5-----------------|2--2--2-----------------|-----------------------------|-------------------|

--------------------------|--------------------------|-----------------------------|---------------|
--------------------------|--------------------------|-----------------------------|---------------|
7--7--7-----------------|4--4--4-----------------|4--4--4--4--4--4--4--4--|4--4--4--4--7--7--6--6--|
5--5--5-----------------|2--2--2-----------------|4--4--4--4--4--4--4--4--|4--4--4--4--------------|
5--5--5-----------------|2--2--2-----------------|2--2--2--2--2--2--2--2--|2--2--2--2--5--5--4--4--|
5--5--5-----------------|2--2--2-----------------|-----------------------------|-------------------|

-----------------------------|------------------------------|-----------------------------------|----------------|
-----------------------------|------------------------------|-----------------------------------|----------------|
7--7--7--7--7--7--7--7--|9--9--9--9--9--9--9--9--|-----------------------------------|---------------------------|
5--5--5--5--5--5--5--5--|---------------9--9--9--9--|12-12-12-12-12-12-12-12-|12-12-12-12-7--7--7--7-------------|
5--5--5--5--5--5--5--5--|7--7--7--7--7--7--7--7--|-9---9---9---9--9---9---9--9--|-9---9--9---9-------------------|
5--5--5--5--5--5--5--5--|------------------------------|9---9---9---9---9--9---9--9--|-9---9--9---9--7--7--7--7--|


-----------------------------|------------------------------|----------------------------------|------------|
-----------------------------|------------------------------|-----------------------------------|-----------|
7--7--7--7--7--7--7--7--|9--9--9--9--9--9--9--9--|-----------------------------------|----------------------|
5--5--5--5--5--5--5--5--|---------------9--9--9--9--|12-12-12-12-12-12-12-12-|9------------------7----------|
5--5--5--5--5--5--5--5--|7--7--7--7--7--7--7--7--|-9---9---9---9--9---9---9--9--|9------------------7-------|
5--5--5--5--5--5--5--5--|-----------------------------|-9---9---9---9--9---9---9--9--|9------------------7--|


Last row of the second chorus:

-----------------------------|------------------------------|-------------------------|--|
-----------------------------|------------------------------|-------------------------|--|
7--7--7--7--7--7--7--7--|9--9--9--9--9--9--9--9--|-------------------------|-------------|
5--5--5--5--5--5--5--5--|9--9--9--9--9--9--9--9--|12----------------------|--------------|
5--5--5--5--5--5--5--5--|7--7--7--7--7--7--7--7--|9------------------------|-------------|
5--5--5--5--5--5--5--5--|-----------------------------|9------------------------|--------|


C-part

-------------------------|------------0------------|------------------------|----------------------|
-------------------------|--------------------------|------------------------|---------------------|
-------------------------|------------------11----|------------------------|-----------------------|
12----------------------|---------------------11-|------------------------|------------------------|
-------------------------|-------------------------|------------------------|----------------------|
-------------------------|-------------------------|------------------------|-------------------7--|


-----------------------------|-----------------------------|------------------------------|--------|
-----------------------------|-----------------------------|------------------------------|--------|
-----------------------------|-----------------------------|------------------------------|--------|
-----------------------------|-----------------------------|------------------------------|--------|x2
9--9--9--9--9--9--9--9--|7--7--7--7--7--7--7--7--|4--4--4--4--4--4--4--4--|5--5--5--5--5--5--5--5--|
9--9--9--9--9--9--9--9--|7--7--7--7--7--7--7--7--|4--4--4--4--4--4--4--4--|5--5--5--5--5--5--5--5--|

PM______________________________________________________________________

-----------------------------|------------------------------|-----------------------------|--------|
-----------------------------|------------------------------|-----------------------------|--------|
-----------------------------|------------------------------|-----------------------------|--------|
9--9--9--9--9--9--9--9--|7--7--7--7--7--7--7--7--|4--4--4--4--4--4--4--4--|5--5--5--5--5--5--5--5--|x2
9--9--9--9--9--9--9--9--|7--7--7--7--7--7--7--7--|4--4--4--4--4--4--4--4--|5--5--5--5--5--5--5--5--|
9--9--9--9--9--9--9--9--|7--7--7--7--7--7--7--7--|4--4--4--4--4--4--4--4--|5--5--5--5--5--5--5--5--|

PM______________________________________________________________________

Pre-Chorus/Breakdown

--------------------------|--------------------------|---------------------------|------------------|
--------------------------|--------------------------|---------------------------|------------------|
-------7-----------7-----|-------7-----------7-----|-------7-----------7-----|-------7-----------7--|(P.H. note also with bass)
--------------------------|---------------------------|--------------------------|------------------|
--------------------------|---------------------------|--------------------------|------------------|
9--9--------9--9--------|7--7--------7--7--------|4--4--------4--4--------|5--5--------5--5---------|

-----------------------------|------------------------------|-------------------------|--|
-----------------------------|------------------------------|-------------------------|--|
-----------------------------|------------------------------|-------------------------|--|
-----------------------------|------------------------------|4-\---------------------|---|
9--9--9--9--9--9--9--9--|7--7--7--7--7--7--7--7--|4-\---------------------|--------------|
9--9--9--9--9--9--9--9--|7--7--7--7--7--7--7--7--|4-\---------------------|--------------|

PM_______________________________________________

Last row of the 3rd chorus

-----------------------------|------------------------------|-----------------------------|-------------------|
-----------------------------|------------------------------|-----------------------------|-------------------|
7--7--7--7--7--7--7--7--|9--9--9--9--9--9--9--9--|-----------------------------|------------------------------|
5--5--5--5--5--5--5--5--|---------------9--9--9--9--|9--9--9--9--9--9--9--9--|11-11-11-11-12-12-12-12---------|
5--5--5--5--5--5--5--5--|7--7--7--7--7--7--7--7--|9--9--9--9--9--9--9--9---|9---9--9---9---9---9--9---9-------|
5--5--5--5--5--5--5--5--|------------------------------|9--9--9--9--9--9--9--9--|9---9--9---9---9---9--9---9--|

Outro

-----------------------------|------------------------------|-----------------------------|--------|
-----------------------------|------------------------------|-----------------------------|--------|
-----------------------------|------------------------------|-----------------------------|--------|
5--5--5--5--5--5--5--5--|7--7--7--7--7--7--7--7--|9--9--9--9--9--9--9--9--|4--4--4--4--4--4--4--4--|
-----------------------------|------------------------------|-----------------------------|--------|
5--5--5--5--5--5--5--5--|7--7--7--7--7--7--7--7--|9--9--9--9--9--9--9--9--|4--4--4--4--4--4--4--4--|

------------------------------|-----------------------------|-----------------------------|------------------------|
------------------------------|-----------------------------|-----------------------------|------------------------|
------------------------------|-----------------------------|-----------------------------|------------------------|
5--5--5--5--5--5--5--5--|7--7--7--7--7--7--7--7--|9--9--9--9--9--9--9--9--|11-11-11-11-12-12-12-12-----------------|
------------------------------|-----------------------------|9--9--9--9--9--9--9--9--|-9--9---9---9---9--9---9--9--|
5--5--5--5--5--5--5--5--|7--7--7--7--7--7--7--7--|9--9--9--9--9--9--9--9--|-9--9---9---9---9--9---9--9-------------|

------------------------------|----------------------------|------------------------------|--------|
------------------------------|----------------------------|------------------------------|--------|
4--4--4--4--4--4--4--4--|6--6--6--6--6--6--6--6--|7--7--7--7--7--7--7--7--|2--2--2--2--2--2--2--2--|
------------------------------|----------------------------|------------------------------|--------|
------------------------------|----------------------------|------------------------------|--------|
5--5--5--5--5--5--5--5--|7--7--7--7--7--7--7--7--|9--9--9--9--9--9--9--9--|4--4--4--4--4--4--4--4--|

-----------------------------|-----------------------------|-------------------------|--|
-----------------------------|-----------------------------|-------------------------|--|
4--4--4--4--4--4--4--4--|6--6--6--6----------------|11----------------------|-----------|
-----------------------------|---------------7--7--7--7--|11---------------------|------|
-----------------------------|---------------7--7--7--7--|9-----------------------|-----|
5--5--5--5--5--5--5--5--|7--7--7--7--7--7--7--7--|9-----------------------|-------------|

                                      PM__________





Comments


Popular Disco Ensemble tabs & chords
Life Of Crime Bass Tabs
Protector Bass Tabs
Protector Chords
Second Soul Chords
You Are The Dawn Chords
First Aid Kit 1 Tabs
This Is My Head Exploding Tabs
Threat Letter Typewriter Tabs
Protector Ukulele
You Are The Dawn Ukulele


Song lyrics



↑ Back to top | Tablatures and chords are parodies/interpretations of the original songs. You may use it for private study, scholarship, research or language learning purposes only
© 2014 AZChords.com Contact us | Privacy policy | DMCA | Add/correct tabs | Request tabs | Top 50 tabs