» » »

Disco Ensemble, Drop Dead Casanova Bass tabs (ver.1)

Artists:  A B C D E F G H I J K L M N O P Q R S T U V W X Y Z # 

Drop Dead Casanova Bass tabs (ver.1)

Disco Ensemble Tabs
 Rating:
4.2/5 (5 votes)
Drop Dead Casanova lessons Tabs too difficult? Try these video lessons and learn fast
1
                Band: Disco Ensemble

Intro
|-------------------------------------|
|-------------------------------------|
|-22222222-00000000-------------------|
|-------------------22222222-33333333-|

Intro 2
|-------------------------------------|
|-------------------------------------|
|-22222222-00000000-------------------|
|-------------------22222222-33(ring)-|

Verse 1
|-------------------------------------|
|-------------------------------------|
|-2222------0000000-------------------|
|-------------------2222------3333333-|

Verse 2
|------------------------------------------|
|------------------------------------------|
|-2222------0000000------------------------|
|-------------------2222(ring)-333(ring)-3-|

Pre-Chorus 1
|--------------------------------------------|
|-------------------44444444-55555555--------|
|-22222222-00000000--------------------------|
|--------------------------------------------|

|-------------------------------------|
|-------------------44444444-44444444-|
|-22222222-00000000-------------------|
|-------------------------------------|

Chorus 1
|-------------------------------------|
|-------------------------------------|
|-------------------22222222-22222222-|
|-222------000------------------------|

|---------------------------------------|
|---------------------------------------|
|------------------22222222-2222-44-55--|
|-222------000--------------------------|

Chorus 2
|--------------------------------------|
|---------------------------------4444-|
|-------------------22222222-2222------|
|-22222222-00000000--------------------|

Chorus 3
|------------------------------------|
|------------------------------------|
|-------------------22222222-2(ring]-|
|-22222222-00000000------------------|

Chorus 4
|---------------------------|
|---------------------------|
|-------------------2(ring)-|
|-22222222-00000000---------|

Chorus 5
|-------------------------------------|
|-------------------------------------|
|-------------------22222222-22222222-|
|-22222222-00000000-------------------|

Pre-Chorus 2
|----------------------|
|----------------------|
|-22222222-00000000----|
|-------------------\2-|

Outro
|---------------------|
|---------------------|
|---------------------|
|-22222222-00000000-0-|


Intro 1+2     (1x)
Verse 1       (3x)
Verse 2       (1x)
Pre-Chorus 1  (1x)
Chorus 1+2+3  (1x)
Intro 1+2     (1x)
Verse 1       (1x)
Verse 2       (1x)
Pre-Chorus 1  (1x)
Chorus 1+2+4  (1x)
(guitar part) 
Intro 1       (2x)
(guitar part) 
Pre-Chorus 2  (1x)
Chorus 1      (1x)
Chorus 2+3    (2x)
Chorus 2      (1x)
Outro         (1x)

It's my very first tab and I hope it's correct!
            
Submit corrections

comments powered by Disqus
↑ Back to top | Disco Ensemble Bass for Drop Dead Casanova. Lyrics for acoustic guitar and electric guitar. 1 Tablatures and chords are parodies/interpretations of the original songs. You may use it for private study, scholarship, research or language learning purposes only