>
 >
Black Euro

Black Euro Guitar Tabs

Disco Ensemble - Black Euro chords, tabs, tablatures, lyrics

Guitar lessons | Add/correct | Request | Top 50 tabs Artists:  A B C D E F G H I J K L M N O P Q R S T U V W X Y Z 0-9

Black Euro Guitar Tabs – Disco Ensemble

CD, Sheet music, Poster

Do you like Black Euro? Share with your friends now
Tabs
                                                DISCO ENSEMBLE: BLACK EURO

tuning: DADGBE


Intro synth (arranged for guitar):

--------------------------------|----------------------------------|
--------------------------------|----------------------------------|
--------------------------------|----------------------------------|
--------------------------------|----------------------------------|
--------------------------------|----------------------------------|
3--3--3--3--3--3--3--3--|3--3--3--3--3--3--3--4--------------------|

PM_______________________________________


Verse

------|-----|-----|-------|
------|-----|-----|-------|
5----|-----|-----|--------|
3----|-----|-----|--------|
3----|-----|-----|--------|
3----|-----|-----|--------|


--------------------------------|---------------------------------|
--------------------------------|---------------------------------|
--------------------------------|---------------------------------|x3
7--7--7--7--7--7--7--7--|7--7--7--7--7--7--7----------------------|
--------------------------------|---------------------------7-----|
--------------------------------|---------------------------------|

PM & PH_________________________________________


--------------------------------|--------------------------------------|
--------------------------------|10-10-10-10-10-10---------------------|
--------------------------------|--------------------------------------|
7--7--7--7--7--7--7--7--|-7---7---7---7---7---7------------------------|
--------------------------------|--------------------------------------|
--------------------------------|--------------------------------------|

__open_PM___............

Chorus

-------------------------------------|--------------------------------------|---------------------------------------|--|
-------------------------------------|--------------------------------------|---------------------------------------|--|
10-10--8-----8--10-10-10-|10-10--------------10-10-10-|---------------------------------------|------------------------|
-8---8---8-----8---8---8---8--|----------13----13----------------|13-13-13-13-13-13-13-13-|8--8--8--8--8--8--8--8------|
-8---8---8-----8---8---8---8--|11-11-11----11-11-11-11-|11-11-11-11-11-11-11-11-|6--6--6--6--6--6--6--6----------------|
-8---8---8-----8---8---8---8--|11-11-11----11-11-11-11-|----------------------------------------|----------------------|

----------------------------------|--------------------------------------|----------------------------------------|--------------------x-x-x-x-x-x--|
----------------------------------|--------------------------------------|----------------------------------------|--------------------x-x-x-x-x-x--|
10-10-8---8--10-10-10-|10-10--------------10-10-10-|----------------------------------------|--------------------x-x-x-x-x-x------------------------|
-8---8--8---8---8---8---8--|----------13----13----------------|13-13-13-13-13-13-13-13-|8--8--8--8--8--x-x-x-x-x-x----------------------------------|
-8---8--8---8---8---8---8--|11-11-11----11-11-11-11-|11-11-11-11-11-11-11-11-|6--6--6--6--6--x-x-x-x-x-x--------------------------------------------|
-8---8--8---8---8---8---8--|11-11-11----11-11-11-11-|----------------------------------------|--------------------x-x-x-x-x-x-----------------------|


--------------------------------|--------------------------------|--------------------------------|----------------------------|
--------------------------------|--------------------------------|--------------------------------|----------------------------|
--------------------------------|--------------------------------|--------------------------------|----------------------------|
8--8--8--8--8--8--8--8--|8--8--8--8--8--8--8--8--|8--8--8--8--8--8--8--8--|----------------------------------------------------|
--------------------------------|--------------------------------|--------------------------------|----------------9--9--8--8--|
8--8--8--8--8--8--8--8--|6--6--6--6--6--6--6--6--|4--4--4--4--4--4--4--4--|7--7--7--7--7--7--7--7------------------------------|


----------------------------------|--------------------------------------|----------------------------------------|--------------------x-x-x-x-x-x--|
----------------------------------|--------------------------------------|----------------------------------------|--------------------x-x-x-x-x-x--|
10-10-8---8--10-10-10-|10-10--------------10-10-10-|----------------------------------------|--------------------x-x-x-x-x-x------------------------|
-8---8--8---8---8---8---8--|----------13----13----------------|13-13-13-13-13-13-13-13-|8--8--8--8--8--x-x-x-x-x-x----------------------------------|
-8---8--8---8---8---8---8--|11-11-11----11-11-11-11-|11-11-11-11-11-11-11-11-|6--6--6--6--6--x-x-x-x-x-x--------------------------------------------|
-8---8--8---8---8---8---8--|11-11-11----11-11-11-11-|----------------------------------------|--------------------x-x-x-x-x-x-----------------------|


C-part

------------------------|------------------------|------------------------|--|
------------------------|------------------------|------------------------|--|
------------------------|------------------------|------------------------|--|
------------------------|------------------------|------------------------|--|x2
------------------------|------------------------|------------------------|--|
3-6-6-3-6-3-3-6-|3-6-6-3-6-3-3-6-|4-7-7-4-7-4-4-7-|4-7-7-4-7-4-4-7-----------|

------------------------|------------------------|------------------------|--|
------------------------|------------------------|------------------------|--|
------------------------|------------------------|------------------------|--|
------------------------|------------------------|------------------------|--|x4
3-6-6-3-6-3-3-6-|3-6-6-3-6-3-3-6-|4-7-7-4-7-4-4-7-|4-7-7-4-7-4-4-7-----------|
3-6-6-3-6-3-3-6-|3-6-6-3-6-3-3-6-|4-7-7-4-7-4-4-7-|4-7-7-4-7-4-4-7-----------|

PM_________________________________________________________________

(3rd and 4th round slightly less palm muted)


3rd Chorus
-------------------------------------|--------------------------------------|---------------------------------------|--|
-------------------------------------|--------------------------------------|---------------------------------------|--|
10-10--8-----8--10-10-10-|10-10--------------10-10-10-|---------------------------------------|------------------------|
-8---8---8-----8---8---8---8--|----------13----13----------------|13-13-13-13-13-13-13-13-|8--8--8--8--8--8--8--8------|
-8---8---8-----8---8---8---8--|11-11-11----11-11-11-11-|11-11-11-11-11-11-11-11-|6--6--6--6--6--6--6--6----------------|
-8---8---8-----8---8---8---8--|11-11-11----11-11-11-11-|----------------------------------------|----------------------|


----------------------------------|--------------------------------------|----------------------------------------|--------------------x-x-x-x-x-x--|
----------------------------------|--------------------------------------|----------------------------------------|--------------------x-x-x-x-x-x--|
10-10-8---8--10-10-10-|10-10--------------10-10-10-|----------------------------------------|--------------------x-x-x-x-x-x------------------------|
-8---8--8---8---8---8---8--|----------13----13----------------|13-13-13-13-13-13-13-13-|8--8--8--8--8--x-x-x-x-x-x----------------------------------|
-8---8--8---8---8---8---8--|11-11-11----11-11-11-11-|11-11-11-11-11-11-11-11-|6--6--6--6--6--x-x-x-x-x-x--------------------------------------------|
-8---8--8---8---8---8---8--|11-11-11----11-11-11-11-|----------------------------------------|--------------------x-x-x-x-x-x-----------------------|


--------------------------------|----------------------------------------|--------------------------------|------------|
--------------------------------|----------------------------------------|--------------------------------|------------|
--------------------------------|10-10-10-10-10-10-10-10-|6--6--6--6--6--6--6--6--|------------------------------------|
8--8--8--8--8--8--8--8--|----------------------------------------|--------------------------------|--------------------|
--------------------------------|-8---8---8---8---8---8---8---8--|4--4--4--4--4--4--4--4--|----------------9--9--8--8--|
8--8--8--8--8--8--8--8--|-6---6---6---6---6---6---6---6--|4--4--4--4--4--4--4--4--|7--7--7--7--7--7--7--7--------------|


----------------------------------|--------------------------------------|----------------------------------------|--|
----------------------------------|--------------------------------------|----------------------------------------|--|
10-10-8---8--10-10-10-|10-10--------------10-10-10-|----------------------------------------|------------------------|
-8---8--8---8---8---8---8--|----------13----13----------------|13-13-13-13-13-13-13-13-|8--8--8--8--8----------------|
-8---8--8---8---8---8---8--|11-11-11----11-11-11-11-|11-11-11-11-11-11-11-11-|6--6--6--6--6--------------------------|
-8---8--8---8---8---8---8--|11-11-11----11-11-11-11-|----------------------------------------|-----------------------|

OUTRO
--------------------------------|--------------------------------|--------------------------------|----------------------------|
--------------------------------|--------------------------------|--------------------------------|----------------------------|
--------------------------------|--------------------------------|--------------------------------|----------------------------|
--------------------------------|--------------------------------|--------------------------------|----------------------------|
--------------------------------|--------------------------------|--------------------------------|----------------9--9--8--8--|
8--8--8--8--8--8--8--8--|6--6--6--6--6--6--6--6--|4--4--4--4--4--4--4--4--|7--7--7--7--7--7--7--7------------------------------|

--------------------------------|--------------------------------|--------------------------------|x--x--x--x--x--x--x--x--|
--------------------------------|--------------------------------|--------------------------------|x--x--x--x--x--x--x--x--|
--------------------------------|--------------------------------|--------------------------------|x--x--x--x--x--x--x--x--|
--------------------------------|--------------------------------|--------------------------------|x--x--x--x--x--x--x--x--|
--------------------------------|--------------------------------|--------------------------------|x--x--x--x--x--x--x--x--|
8--8--8--8--8--8--8--8--|6--6--6--6--6--6--6--6--|4--4--4--4--4--4--4--4--|x--x--x--x--x--x--x--x--------------------------|





Comments


Popular Disco Ensemble tabs & chords
Drop Dead Casanova Bass Tabs
So Cold Bass Tabs
Dynamite Days Tabs
Fresh New Blood Tabs
Golden Years Tabs
Headphones Tabs
See If I Care Tabs
So Long, Sisters Tabs
Threat Letter Typewriter Tabs
Protector Ukulele


Song lyrics



↑ Back to top | Tablatures and chords are parodies/interpretations of the original songs. You may use it for private study, scholarship, research or language learning purposes only
© 2014 AZChords.com Contact us | Privacy policy | DMCA | Add/correct tabs | Request tabs | Top 50 tabs