» » »

Discharge, Why Tabs (ver.1)

Artists:  A B C D E F G H I J K L M N O P Q R S T U V W X Y Z # 

Why Tabs (ver.1)

Discharge Tabs
 Rating:
4.2/5 (5 votes)
Why lessons Tabs too difficult? Try these video lessons and learn fast
                -------------------------------------------------------------------------------
-------------------------------------------------------------------------------

Tuning: Standard

e|---------------------------------|
B|---------------------------------|
G|---------------------------------|
D|-8-8-6-6-6-6-6-6-----------------|
A|-6-6-4-4-4-4-4-4-7-7-7-7-7-7-7-7-|
E|-----------------5-5-5-5-5-5-5-5-| x6

e|---------------------------------------|
B|---------------------------------------|
G|---------------------------------------|
D|---------------------------------------|
A|-8-8-9-9-9-9-9-9-8-8-10-10-10-10-10-10-|
E|-6-6-7-7-7-7-7-7-6-6--8--8--8--8--8--8-| x4

e|---------------------------------|
B|---------------------------------|
G|---------------------------------|
D|-8-8-6-6-6-6-6-6-----------------|
A|-6-6-4-4-4-4-4-4-7-7-7-7-7-7-7-7-|
E|-----------------5-5-5-5-5-5-5-5-| x6

e|---------------------------------------|
B|---------------------------------------|
G|---------------------------------------|
D|---------------------------------------|
A|-8-8-9-9-9-9-9-9-8-8-10-10-10-10-10-10-|
E|-6-6-7-7-7-7-7-7-6-6--8--8--8--8--8--8-| x3

e|---------------------------------------|
B|---------------------------------------|
G|---------------------------------------|
D|---------------------------------------|
A|-8-8-9-9-9-9-9-9-8-8-10----X\\\\\\\\\\-|
E|-6-6-7-7-7-7-7-7-6-6--8----X\\\\\\\\\\-|

e|---------------------------------|
B|---------------------------------|
G|---------------------------------|
D|-8-8-6-6-6-6-6-6-----------------|
A|-6-6-4-4-4-4-4-4-7-7-7-7-7-7-7-7-|
E|-----------------5-5-5-5-5-5-5-5-| x6

e|---------------------------------------|
B|---------------------------------------|
G|---------------------------------------|
D|---------------------------------------|
A|-8-8-9-9-9-9-9-9-8-8-10-10-10-10-10-10-|
E|-6-6-7-7-7-7-7-7-6-6--8--8--8--8--8--8-| x4

e|---------------------------------|
B|---------------------------------|
G|---------------------------------|
D|-8-8-6-6-6-6-6-6-----------------|
A|-6-6-4-4-4-4-4-4-7-7-7-7-7-7-7-7-|
E|-----------------5-5-5-5-5-5-5-5-| x6

e|---------------------------------------|
B|---------------------------------------|
G|---------------------------------------|
D|---------------------------------------|
A|-8-8-9-9-9-9-9-9-8-8-10-10-10-10-10-10-|
E|-6-6-7-7-7-7-7-7-6-6--8--8--8--8--8--8-| x3

e|-----------------------------------------|
B|-----------------------------------------|
G|---------------------------------------8-|
D|---------------------------------------8-|
A|-8-8-9-9-9-9-9-9-8-8-10-10-10-10-10-10-6-|
E|-6-6-7-7-7-7-7-7-6-6--8--8--8--8--8--8---|

| /  slide up
| \  slide down
| h  hammer-on
| p  pull-off
| ~  vibrato
| +  harmonic
| x  Mute note
===============================================================================
            
Submit corrections

comments powered by Disqus
↑ Back to top | Discharge Tabs for Why. Lyrics for acoustic guitar and electric guitar. Tablatures and chords are parodies/interpretations of the original songs. You may use it for private study, scholarship, research or language learning purposes only