» » »

Discharge, Free Speech For The Dumb Tabs (ver.1)

Artists:  A B C D E F G H I J K L M N O P Q R S T U V W X Y Z # 

Free Speech For The Dumb Tabs (ver.1)

Discharge Tabs
Rating:
0/5 (0 votes)
Free Speech For The Dumb lessons Tabs too difficult? Try these video lessons and learn fast
                ------------------------------Guitar Tabs-----------------------------------

Discharge: Free Speech For The Dumb

Rhythm(guitar 1)
e------------------------------------------------------------------|
B------------------------------------------------------------------|
G------------------------------------------------------------------|
D------------------------------------------------------------------|
A--2-----------------------5---------------------------------------|
E--0-0-0-0-0-0-0-0-0-0-0-0-3---------------------------------------|
Pm   - - - - - - - - - - -

Rhythm(guitar 2)
e------------------------------------------------------------------|
B------------------------------------------------------------------|
G------------------------------------------------------------------|
D--9-----------------------12--------------------------------------|
A--7-----------------------10--------------------------------------|
E----0-0-0-0-0-0-0-0-0-0-0-----------------------------------------|
Pm   - - - - - - - - - - -

1st Solo(main riff under)
e-------------------------------------------------------------------|
B-12-15/12-12-15-15/12-15/14/12-15-12-15-14-12-15-12-12-15/14/12-14-|
G-------------------------------------------------------------------|
D-------------------------------------------------------------------|
A-------------------------------------------------------------------|
E-------------------------------------------------------------------|

e-------------------------------------19-0--------------------------|
B-10-12-9-12/10/8-11-10-8-5-8-5-7/5-2------12/0-0----0-12-0----0-14-|
G-------------------------------------------------12-0-12-0-12-0-14-|
D-------------------------------------------------------------------|
A-------------------------------------------------------------------|
E-------------------------------------------------------------------|

e------------------------------------------------------------------|
B-14-0-14-0-14-0----0----0----0----12-12-12-12-12-12-0-12----------|
G-14-0-14-0-14-0-12-0-12-0-12-0-14------------------------12-14-14-|
D------------------------------------------------------------------|
A------------------------------------------------------------------|
E------------------------------------------------------------------|

e--------------------------------------------------------------12--|
B-------------------------------------------------0----0-15-15-----|
G-12----------12-14-12-14-12-14-0-14-0-14-14-0-14-0-14-0-----------|
D----15-12-14------------------------------------------------------|
A------------------------------------------------------------------|
E------------------------------------------------------------------|

e-------15-15-15-12-15-12/7/16-0-15p0-0h14p0-0h15p0-0h7p0h8p7h22p0-|
B-15-12-15-15-15---------------------------------------------------|
G------------------------------------------------------------------|
D------------------------------------------------------------------|
A------------------------------------------------------------------|
E------------------------------------------------------------------|

e-0-0/22h0-0-0-0-0-0-0-12-12-12p0-12-12-12-12-12-12-12p0-12-0-12----|
B----------------------12-12-12p0-12-12-12-12-12-12-12p0-12-0-15-15-|
G-----------------------------------------------------------0-------|
D-------------------------------------------------------------------|
A-------------------------------------------------------------------|
E-------------------------------------------------------------------|

e-12-12-0----------------------------------------------------------|
B----15-0-12-12----12-12-0-------------12--12----------------------|
G---------14----14----14-0-------------12--12----------------------|
D--------------------------14-14-14-14--------14-12-14-12/14-14-14-|
A------------------------------------------------------------------|
E------------------------------------------------------------------|

e-------------------------------------------------------------------|
B----------------------------12-------------------------------------|
G----------------------------12----------------------------14/12----|
D-14-14-14-14-14-14-14-14-14----14-14-14-14-14-14-14-14-14-------14-|
A-------------------------------------------------------------------|
E-------------------------------------------------------------------|

e------------------------------------------------------------------|
B-------------------------------12-------------------------12-12-0-|
G-------------------------------12-------------------------12-12-0-|
D-14-14-14-14-14-14-14-14-14-14----14-14-14-14-14-14-14-14---------|
A------------------------------------------------------------------|
E------------------------------------------------------------------|

e------------------------------------------------------------------|
B-12-0-12-0-14-0-14-0-16-0-16-0-16-14-0-14-0-14-12-----------------|
G-12-0-12-0-14-0-14-0-16-0-16-0-16-14-0-14-0-14-12-11h13-12-12-12--|
D------------------------------------------------------------------|
A------------------------------------------------------------------|
E------------------------------------------------------------------|

e------------------------------------------------------------------|
B-12-12------------------------------------------------------------|
G-12-12-12---------------------------------------------------------|
D-----------14-----------------------------------------------------|
A--------------14---5----------------------------------------------|
E-----------------0-3----------------------------------------------|

2nd Solo(main riff under)
e-------------------------------------------------------------------|
B-7-0-0--------------------------------0-------------------------15-|
G-------7-0-9-0-12-0-14-0-16-0-14-0-12---9-7-7/9---9-0-12-0-15-15---|
D------------------------------------------------0------------------|
A-------------------------------------------------------------------|
E-------------------------------------------------------------------|

e-17-16-17-16-15-12/15-------------------------------------------0-|
B-17-16-17-------12/15/10h12h13h14-------------------------------0-|
G----------------------------------0-14-14-14/16p0-0-14-14-14/16-0-|
D------------------------------------------------------------------|
A------------------------------------------------------------------|
E------------------------------------------------------------------|

e-15---------0-15------------0-12-------0-12---------0--------------|
B-15-15-15p0-0-15-15-15-15p0-0----12-12-0-12-12-12p0-0----0---------|
G------------------------------------------------------14-0-16-0-12-|
D-------------------------------------------------------------------|
A-------------------------------------------------------------------|
E-------------------------------------------------------------------|

e-------------------------0-0-12-12-12-12-12-12-12-12-12-12-12-15--|
B--------------------5/17--------------------12-------12-12----15--|
G-0-14-0-11-0-12-0-9-----------------------------------------------|
D------------------------------------------------------------------|
A------------------------------------------------------------------|
E------------------------------------------------------------------|

e-12-15-15-12-15-12----12-12----12----12----------------------------|
B-------------15----15-15----15----15----12-12----12----12-15-15----|
G----------------------------------------14----14----14----14----14-|
D-------------------------------------------------------------------|
A-------------------------------------------------------------------|
E-------------------------------------------------------------------|

e------------------------------------------------------------------|
B-------------------16-16-16-17-17-17-17---------------------------|
G-14-14-14-16-16-16-18-18-18-19-19-19-19---------------------------|
D------------------------------------------------------------------|
A------------------------------------------------------------------|
E----------------------------------------2/15----------------------|
outro
e------------------------------------------------------------------|
B------------------------------------------------------------------|
G------------------------------------------------------------------|
D------------------------------------------------------------------|
A-2-----------------------5-2-5-5-2h3------------------------------|
E-0-0-0-0-0-0-0-0-0-0-0-0-3-0-0-0-0h5------------------------------|


---------------------------------------------------------------------------
lyric:
Free Speech for the Dumb

Free speech free speech for the dumb
Free speech free speech for the dumb
Free speech free speech for the dumb
Free speech free speech for the dumb
            

comments powered by Disqus
↑ Back to top | Discharge Tabs for Free Speech For The Dumb. Lyrics for acoustic guitar and electric guitar. Tablatures and chords are parodies/interpretations of the original songs. You may use it for private study, scholarship, research or language learning purposes only