» » »

Solid Rock Bass tabs (ver.1)

Artists:  A B C D E F G H I J K L M N O P Q R S T U V W X Y Z # 

Solid Rock Bass tabs (ver.1)

Dire Straits
Rating:
0/5 (0 votes)

Hard to play? Try these video lessons and learn fast.
                -------------------------------------------------------------------------------
                            SOLID ROCK - Dire Straits
-------------------------------------------------------------------------------

Tuning: Standard

Intro (start playing with keyboards)
 | 3x                           |
G|-------------|----------------|----------------------------------|---------|
D|*------------|-----------5-7-*|-7-7-5-5--------------------------|---------|
A|*-0--0--0--0-|-0--0-/7-7-----*|---------7-7-5-5-3-3-0-0----------|---------|
E|-------------|----------------|--------------------------3-3-0-0-|---------|


Verse                    _______________  _____
| 4x                    | 1st, 2nd, 3rd  | 4th  |
|-----------------------|----------------|------|----------------------------|
|*----------------------|---------------*|------|----------------------------|
|*-5--5-5-5--5-5--------|-3--2-0--------*|-3-2--|----------------------------|
|----------------3--3-3-|----------------|------|----------------------------|

Chorus
 |3x                              |
G|--------------------------------|-------------------------------|----------|
D|*------------------------------*|---------------7-5-------------|----------|
A|*-0--0-0-2--2-0--------------5-*|-0--0-0-0--0-0-----7-5-3-0-----|----------|
E|----------------3--3-2-3-2-0----|---------------------------3-0-|----------|

[Verse]

[Chorus]

Bridge
|----------------------------------------------------------------------------|
|----------------------------------------------------------------------------|
|----------------------------------------------------3-------3---------------|
|-5---5-4-0---2-0-5---5-4-0---2-0-5---5-4-0---2-0-5----5-3-5---5-3-5---5-4-0-|

|----------------------------------------------------------------------------|
|----------------------------------------------------------------------------|
|----------------------2--2-2-4--4-4-5--5-5----------------------------------|
|--2-0-5---5-4-0---2-0----------------------3--3-3-5--5-5-5------------------|

Guitar solo         _____              _____
| 2x               | 1st              | 2nd
|------------------|------------------|-------------------------------|------|
|*-----------------|-----------------*|------5-7--7-7-7-5-------------|------|
|*-0-0-2-2---2-5-2-|-0-0-2---------5-*|-0--7--------------7-5-3-0-----|------|
|----------3-------|-------5-3-2-0----|---------------------------3-0-|------|

[Verse]

Outro [4x]
| 3x                             |
|--------------------------------|-------------------------------|-----------|
|*------------------------------*|---------------7-5-------------|-----------|
|*-0--0-0-2--2-0--------------5-*|-0--0-0-0--0-0-----7-5-3-0-----|-----------|
|----------------3--3-2-3-2-0----|---------------------------3-0-|-----------|


| /  slide up
| \  slide down
| h  hammer-on
| p  pull-off
| ~  vibrato
| +  harmonic
| x  Mute note
===============================================================================
            
Hard to play? Try these video lessons and learn fast. | Correct




comments powered by Disqus
↑ Back to top | Tablatures and chords are parodies/interpretations of the original songs. You may use it for private study, scholarship, research or language learning purposes only