» » »

Dire Straits, Six Blade Knife Bass tabs (ver.1)

Artists:  A B C D E F G H I J K L M N O P Q R S T U V W X Y Z # 

Six Blade Knife Bass tabs (ver.1)

Dire Straits Tabs
 Rating:
4/5 (4 votes)
Six Blade Knife lessons Tabs too difficult? Try these video lessons and learn fast
                dire_straits/sixblade_knife.btab

Basstab by Jan Bjorklund, Finland; 
You are welcome to request for basstabs!
Bienvenidos a pedirme transcripciones para el bajo!
Fingering and positions as suggested by TablEdit. 

TablEdited by Jan Bjorklund
Tuning : E A D G 	Time Signature: 4/4

 |       tempo 113       |        |       |       |       |        
|--------------------------------|--------------------------------|
|--------------------------------|--------------------------------|
|--------------------------------|3---------------5---------------|
|5-----------3---5---------------|------------3-------------------|

 |       |       |       |        |       |       |       |        
|--------------------------------|--------------------------------|
|--------------------------------|--------------------------------|
|--------------------------------|3---------------5---------------|
|5-----------3---5---------------|------------3-------------------|

 
 |       |       |       |        |       |       |       |        
|--------------------------------|--------------------------------|
|------------------repeate these two bars until-------------------|
|--------------------------------|3---------------5---------------|
|5-----------3---5---------------|------------3-------------------|

 |       |       |       |        |       |       |       |        
|--------------------------------|--------------------------------|
|--------------------------------|------------------------5---7---|
|--------------------------------|3---------------5h--7-----------|
|5-----------3---5---------------|------------3-------------------|

 |       |       |       |        |       |       |       |        
|--------------------------------|--------------------------------|
|--------------------------------|--------------------------------|
|5---------------------------5---|3-------------------3-------5---|
|--------------------------------|------------------------5-------|

 |       |       |       |        |       |       |       |        
|--------------------------------|--------------------------------|
|5-------------------------------|------------------------5---7---|
|----------------------------5---|5-------5-------5---7-----------|
|--------------------------------|--------------------------------|

 |       |       |       |        |       |       |       |        
|--------------------------------|--------------------------------|
|--------------------------------|--------------------------------|
|5---------------------------5---|3---------------------------3---|
|--------------------------------|--------------------------------|

 |       |       |       |        |       |       |       |        
|--------------------------------|--------------------------------|
|5-------------------------------|--------------------------------|
|--------------------------------|5-------5-------5-------5-------|
|----------------------------3---|--------------------------------|

 |       |       |       |        |       |       |       |        
|--------------------------------|--------------------------------|
|------------------------5---7---|--------------------------------|
|5---5---5---5---5---7-----------|--------------------------------|
|--------------------------------|5---------------5---------------|

 |       |       |       |        |       |       |       |        
|--------------------------------|--------------------------------|
|--------------------------------|--------------------------------|
|3---------------5---------------|--------------------------------|
|------------3-------------------|5-----------3---5---------------|

 |       |       |       |        |       |       |       |        
|--------------------------------|--------------------------------|
|-----------------these two bars repaeting like before------------|
|3---------------5---------------|--------------------------------|
|------------3-------------------|5-----------3---5---------------|
            
Submit corrections

comments powered by Disqus
↑ Back to top | Dire Straits Bass for Six Blade Knife. Lyrics for acoustic guitar and electric guitar. Tablatures and chords are parodies/interpretations of the original songs. You may use it for private study, scholarship, research or language learning purposes only