» » »

Local Hero Tabs (ver.1)

Artists:  A B C D E F G H I J K L M N O P Q R S T U V W X Y Z # 

Local Hero Tabs (ver.1)

Dire Straits
Rating:
4/5 (2 votes)

Hard to play? Try these video lessons and learn fast.
                (Live)
    
### Downloaded: 1/05/2004 5:36 - PDT



Local Hero by Dire Straits
                          Live "On The Night"

|---|-------------------|---------|------------|---5-----5-4-----5--|
|---|---7-----7-5-----7-|-----5-7-|-10-------8-|--7----7-------7----|
|---|--7----7-------7---|---7-----|-7----7-----|-6---6-------6------|
|-7-|-7---7-------7-----|-7-------|----7---7---|--------------------|
|---|-------------------|---------|------------|--------------------|
|---|-------------------|---------|------------|--------------------|


|-----4-5-|-----4-5-7-5-----|-------------|---------|-------------------|
|---7-----|---7---------9-7-|-8---7---8---|-----7-8-|-----7-8h10p8-7-5--|
|-6-------|-6---------------|---7---7-----|---9-----|---9---------------|
|---------|-----------------|-----------9-|-9-------|-9-----------------|
|---------|-----------------|-------------|---------|-------------------|
|---------|-----------------|-------------|---------|-------------------|


|-------------------|-------|--------------------------|-------------|
|---7-----7-5-----7-|-----7-|---7-----7-5-7-8-10p8-7-5-|-8---7---8---|
|--7----7-------7---|---7---|--7----7------------------|---7---7-----|
|-7---7-------7-----|-7-----|-7---7--------------------|-----------9-|
|-------------------|-------|--------------------------|-------------|
|-------------------|-------|--------------------------|-------------|


|------------------------|--------------------------------------|-------------|
|--7-8-5/7-----7-5-----7-|-------7---7-----7-5-----7-8-10p8-7-5-|-3---2---2-3-|
|-9----------7-------7---|-5/7------7----7-------7--------------|---4---4-----|
|9---------7-------7-----|-----7---7---7-------7----------------|-------------|
|------------------------|--------------------------------------|-------------|
|------------------------|--------------------------------------|-------------|


|-----------------|-------------|-----------------|
|---3-3---3-2-3---|-3---2---2-3-|---2-3---2-2h3p2-|
|-4-----4-------4-|---4---4-----|-4-----4---------|
|-----------------|-------------|-----------------|
|-----------------|-------------|-----------------|
|-----------------|-------------|-----------------|


1:41 mins

|---------------------|------------------------|---------------------|
|---------------------|---------12-14-12-------|---------10----------|
|-2/11-11-11-11-14-14-|-7/11-14----------14-11-|-11p9h11----9-9-7-9--|
|---------------------|------------------------|---------------------|
|---------------------|------------------------|---------------------|
|---------------------|------------------------|---------------------|


|---------------------|---------------------------|--------------------------------------|
|-------7-------------|---------------------------|-----------15-14-12-14-12h14p12-------|
|---7-9---7-----------|-2-7/9-9/11-11-11-11-14-14-|-7-9-11-14----------------------14-11-|
|-7---------7-9-9p7h9-|---------------------------|--------------------------------------|
|---------------------|---------------------------|--------------------------------------|
|---------------------|---------------------------|--------------------------------------|


|---------------------|-------------------------|
|---------------------|-------7---------7-------|
|-11^-9/11-14-9-9-7-9-|---7-9---7-----7---9-7-7-|
|---------------------|-7---------7-9-----------|
|---------------------|-------------------------|
|---------------------|-------------------------|


|----------10-12-10-9---------7-----7-5-|--------------------------|
|-----7-10------------10-7-10---8-5-----|-8p6h8-10-8-7---------7---|
|-7h9-----------------------------------|--------------7-----7---9-|
|---------------------------------------|----------------7-9-------|
|---------------------------------------|--------------------------|
|---------------------------------------|--------------------------|


|-10^-10-9-10---------------------------------------|
|-------------10-8h10p8-7-10---7-10-7-8-7-----------|
|----------------------------7----------------------|
|-----------------------------------------7-9-9-7-7-|
|---------------------------------------------------|
|---------------------------------------------------|


2:48
|-----------------|------7-9-7h9p7------|---------------------------|
|---7-----7-10-10-|-7-10-----------10-7-|-------7------------7-8----|
|---7---7---------|---------------------|---7-9---7^-------------9--|
|-7---7-----------|---------------------|-7----------7-9-9-7--------|
|-----------------|---------------------|---------------------------|
|-----------------|---------------------|---------------------------|


|---------------|------------------------|-14-12--------------------------|
|---8-7-7-8-----|-7-8--------------------|-------15-14-12-14-12-10h12p10--|
|-----------9---|-----9-7-9-7-9-11-14-14-|--------------------------------|
|-7-----------9-|------------------------|--------------------------------|
|---------------|------------------------|--------------------------------|
|---------------|------------------------|--------------------------------|


|---------------------------|----------------------------|
|-7/12-12-------------------|-------7-7^---------7-------|
|-7/11-11-11-11-11-9-7-11-9-|---7-9------7-----7---9-7-7-|
|---------------------------|-7------------7-9-----------|
|---------------------------|----------------------------|
|---------------------------|----------------------------|


|---------------|------------------|---------------|
|-------7-------|---------------10-|---------------|
|---7-9---7p6-4-|-7h9-11-9h11p9----|--7---------7--|
|-7-------------|------------------|--7-----4h7----|
|---------------|------------------|----5h7--------|
|---------------|------------------|---------------|

There ya go, propper job!
(This version of Local Hero is on the encores CD of the album "On the Night"
and its also track 16 (the last track) of the Sultans of Swing very best
of dire straits album)
            
Hard to play? Try these video lessons and learn fast. | Correct




comments powered by Disqus
↑ Back to top | Tablatures and chords are parodies/interpretations of the original songs. You may use it for private study, scholarship, research or language learning purposes only