» » »

Heavy Fuel Tabs (ver.3)

Artists:  A B C D E F G H I J K L M N O P Q R S T U V W X Y Z # 

Heavy Fuel Tabs (ver.3)

Dire Straits
Rating:
0/5 (0 votes)

Hard to play? Try these video lessons and learn fast.
                4X
|-------------------------------------------------|
|-------------------------------------------------|
|--9--9--9--X--X--X--9--9--9----------------------|
|--9--9--9--X--X--X--9--9--9----------------------|
|--7--7--7--X--X--X--7--7--7----7--10b--7------7--|
|------------------------------------------10-----|
2X
|---------------------------------------------------------------------------------------------|
|---------------------------------------------------------------------------------------------|
|---------------------------------------------------------------------------------------------|
|--9--9----------------9--9--9--9----------------9--9--9----------------9--9----7------7------|
|--7--7--10--7---------7--7--7--7--10--7---------7--7--7--10--7---------7--7-------10-----10--|
|---------------10--7---------------------10--7------------------10--7------------------------|

|-------------------------------------------------------------|
|-------------------------------------------------------------|
|--9--9--9--9--9-----7s9--------------------------------------|
|--9--9--9--9--9-----7s9--------------------------------------|
|--7--7--7--7--7-----5s7--------------------------------------|
|-------------------------------------------------------------|

Last time I was sober, man I felt bad
Worst hangover that I ever had
It took six hamburgers and scotch all night
Nicotine for breakfast just to put me right

           C
Cos if you wanna run cool
       D
If you wanna run cool
       C               D
If you wanna run cool, you got to run
|-------------------------------------------------|
|-------------------------------------------------|
|--9--9--9--X--X--X--9--9--9----------------------|
|--9--9--9--X--X--X--9--9--9----------------------|
|--7--7--7--X--X--X--7--7--7----7--10b--7------7--|
|------------------------------------------10-----|
E
On heavy, heavy fuel
C         D            E
On heavy, heavy fuel
2X
|-------------------------------------------------|
|-------------------------------------------------|
|--9--9--9--X--X--X--9--9--9----------------------|
|--9--9--9--X--X--X--9--9--9----------------------|
|--7--7--7--X--X--X--7--7--7----7--10b--7------7--|
|------------------------------------------10-----|
2X
|---------------------------------------------------------------------------------|
|---------------------------------------------------------------------------------|
|---------------------------------------------------------------------------------|
|--9--9----------------------------------9--9--9--------------------7------7------|
|--7--7--10--7-------------10--7---------7--7--7--10--7----------------10-----10--|
|---------------10--7-------------10--7------------------10--7--------------------|

|-------------------------------------------------------------|
|-------------------------------------------------------------|
|--9--9--9--9--9-----7s9--------------------------------------|
|--9--9--9--9--9-----7s9--------------------------------------|
|--7--7--7--7--7-----5s7--------------------------------------|
|-------------------------------------------------------------|
My life makes perfect sense
Lust and food and violence
Sex and money are my major kicks
Get me in a fight I like dirty tricks
           C
Cos if you wanna run cool
       D
If you wanna run cool
       C               D
If you wanna run cool, you got to run







|-------------------------------------------------|
|-------------------------------------------------|
|--9--9--9--X--X--X--9--9--9----------------------|
|--9--9--9--X--X--X--9--9--9----------------------|
|--7--7--7--X--X--X--7--7--7----7--10b--7------7--|
|------------------------------------------10-----|
E
On heavy, heavy fuel
C         D            E
On heavy, heavy fuel

|-------------------------------------------------------------|
|-------------------------------------------------------------|
|--9--9--9--9--9-----7s9--------------------------------------|
|--9--9--9--9--9-----7s9--------------------------------------|
|--7--7--7--7--7-----5s7--------------------------------------|
|-------------------------------------------------------------|
My chick loves a man whos strong
The things shell do to turn me on
I love the babes, dont get we wrong
Hey, thats why I wrote this song
4X
|-------------------------------------------------|
|-------------------------------------------------|
|--9--9--9--X--X--X--9--9--9----------------------|
|--9--9--9--X--X--X--9--9--9----------------------|
|--7--7--7--X--X--X--7--7--7----7--10b--7------7--|
|------------------------------------------10-----|
2X
|---------------------------------------------------------------------------------------------|
|---------------------------------------------------------------------------------------------|
|---------------------------------------------------------------------------------------------|
|--9--9----------------9--9--9--9----------------9--9--9----------------9--9----7------7------|
|--7--7--10--7---------7--7--7--7--10--7---------7--7--7--10--7---------7--7-------10-----10--|
|---------------10--7---------------------10--7------------------10--7------------------------|

|-------------------------------------------------------------|
|-------------------------------------------------------------|
|--9--9--9--9--9-----7s9--------------------------------------|
|--9--9--9--9--9-----7s9--------------------------------------|
|--7--7--7--7--7-----5s7--------------------------------------|
|-------------------------------------------------------------|
I dont care if my liver is hanging by a thread
Dont care if my doctor says I ought to be dead
When my ugly big car wont climb this hill
Ill write a suicide note on a hundred dollar bill
           C
Cos if you wanna run cool
       D
If you wanna run cool
       C               D
If you wanna run cool, you got to run
|-------------------------------------------------|
|-------------------------------------------------|
|--9--9--9--X--X--X--9--9--9----------------------|
|--9--9--9--X--X--X--9--9--9----------------------|
|--7--7--7--X--X--X--7--7--7----7--10b--7------7--|
|------------------------------------------10-----|
E
On heavy, heavy fuel
C         D            E
On heavy, heavy fuel
|-------------------------------------------------|
|-------------------------------------------------|
|--9--9--9--X--X--X--9--9--9----------------------|
|--9--9--9--X--X--X--9--9--9----------------------|
|--7--7--7--X--X--X--7--7--7----7--10b--7------7--|
|------------------------------------------10-----|
C         D            E
On heavy, heavy fuel

Until the end
|---------------------------------------------------------------------------------|
|---------------------------------------------------------------------------------|
|---------------------------------------------------------------------------------|
|--9--9----------------------------------9--9--9--------------------7------7------|
|--7--7--10--7-------------10--7---------7--7--7--10--7----------------10-----10--|
|---------------10--7-------------10--7------------------10--7--------------------|
            
Hard to play? Try these video lessons and learn fast. | Correct




comments powered by Disqus
↑ Back to top | Tablatures and chords are parodies/interpretations of the original songs. You may use it for private study, scholarship, research or language learning purposes only