» » »

Dire Straits, Going Home / Local Hero Tabs (ver.1)

Artists:  A B C D E F G H I J K L M N O P Q R S T U V W X Y Z # 

Going Home / Local Hero Tabs (ver.1)

Dire Straits Tabs
Rating:
0/5 (0 votes)
Going Home / Local Hero lessons Tabs too difficult? Try these video lessons and learn fast
                PROPS GO TO: Straits

Local Hero by Dire Straits
                            Live "Alchemy"
1:30
|---|-------------------|---------|-------------|---5-----5-4-----5---|
|---|---7-----7-5-----7-|-----5-7-|-10---8---10-|--7----7-------7-----|
|---|--7----7-------7---|---7-----|----7---7----|-6---6-------6-----6-|
|-7-|-----7-------7-----|-7-------|-------------|---------------------|
|---|-------------------|---------|-------------|---------------------|
|---|-------------------|---------|-------------|---------------------|


|-----4-5-|-----4-5-7-5-----|-------------|---------|-------------------|
|---7-----|---7---------9-7-|-8---7---8---|-----7-8-|-----7-8-10p8-7-5--|
|-6-------|-6---------------|---7---7-----|---9-----|---9---------------|
|---------|-----------------|-----------9-|-9-------|-9-----------------|
|---------|-----------------|-------------|---------|-------------------|
|---------|-----------------|-------------|---------|-------------------|


                                              *Audience Laugh*
|-------------------|-------------------------------|-------------|
|---7-----7-5-----7-|---7----7-----7-5-7-8-10p8-7-5-|-8---7---8---|
|--7----7-------7---|---7---7----7------------------|---7---7-----|
|-7---7-------7-----|-7----7---7--------------------|-----------9-|
|-------------------|-------------------------------|-------------|
|-------------------|-------------------------------|-------------|

2:35
|------------------------|-----------------------------------|-------------|
|---8-7--------7-5-----7-|-------7---7-----7-5-7-8-10p8-7-5--|-3---2---2-3-|
|-9----------7-------7---|---5/7----7----7-------------------|---4---4-----|
|-9--------7-------7-----|---------7---7---------------------|-------------|
|------------------------|-----------------------------------|-------------|
|------------------------|-----------------------------------|-------------|


|-----------------|-------------|-----------------|
|---3-3---3-2-3---|-3---2---2-3-|---2-3---2-2h3p2-|
|-4-----4-------4-|---4---4-----|-4-----4---------|
|-----------------|-------------|-----------------|
|-----------------|-------------|-----------------|
|-----------------|-------------|-----------------|


3:06 
|---------------------|---------------------------|-------------------|
|---------------------|---------12-12h14p12-------|----12-10h12p10----|
|-2/11-11-11-11-14-14-|-7/11-14-------------14-11-|-14-------------11-|
|---------------------|---------------------------|-------------------|
|---------------------|---------------------------|-------------------|
|---------------------|---------------------------|-------------------|

|------------|------------------------|--------------------------------
|------------|---------7/12-----------|-10-14-12-12h14p12-10-10h12p10--
|-7-9-11-9-7-|-11p9h11------11-10-9-7-|-11-----------------------------
|------------|------------------------|--------------------------------
|------------|------------------------|--------------------------------
|------------|------------------------|--------------------------------


------------------------|---10---------------------|----------------|
-8-8h10p8-7-7h8p7-5h7p5-|--10---12-10-12-7-7h9p7-5-|-7-7-----3/7----|
------------------------|--x-----------------------|-7-7-7-9-----7--|
------------------------|-x------------------------|-------------7--|
------------------------|--------------------------|----------------|
------------------------|--------------------------|----------------|


|---------------------|-------------------7-----------|
|--10-12-14-12--------|----------------7-----10--7----|
|--9--11-11-11-11-9-7-|-------------7---------------7-|
|---------------------|----------7--------------------|
|---------------------|--10p9p7-----------------------|
|---------------------|-------------------------------|

|----------------------------------|
|--------------7-------------------|
|------------7---------------------|
|----------7-----12p11p9-11-12-11--|
|--------7-------------------------|
|-10p9p7---------------------------|

|---------------------|----------------------|-----------------------|
|---------------------|-------12-14-12-------|---------10------------|
|-2/11-11-11-11-14-14-|-11-14----------14-11-|-11p9h11----9-9-9p7h9--|
|---------------------|----------------------|-----------------------|
|---------------------|----------------------|-----------------------|
|---------------------|----------------------|-----------------------|


|---------------------|-------------------|----------10-9-7-9-7h9p7------|
|-------7-------------|-------7-7-7-10-10-|-----7-10----------------10p7-|
|---7-9---7-----------|---7-9-------------|-7h9--------------------------|
|-7---------7-9-9p7h9-|-7-----------------|------------------------------|
|---------------------|-------------------|------------------------------|
|---------------------|-------------------|------------------------------|


|-----|------------------|----------------------------|
|-----|---7-10-----------|-------7---------7----------|
|-11^-|-9------9-9-9p7h9-|---7-9---7-----7---9-7h9p7--|
|-----|------------------|-7---------7-9--------------|
|-----|------------------|----------------------------|
|-----|------------------|----------------------------|


4:32
|----------10-10-10-10-9------7---------|--------------------------|
|-----7-10---------------10p7---10p8-10-|-8p7h8-10-8-7---------7---|
|-7h9-----------------------------------|--------------7-----7---9-|
|---------------------------------------|----------------7-9-------|
|---------------------------------------|--------------------------|
|---------------------------------------|--------------------------|


|-14-12-10-9--------7--------------------------------------|
|-------------10-7-----10-8-10---8-7-8--10-8-7----------9--|
|----------------------------------------------7-----7--9--|
|------------------------------------------------7-9----9--|
|----------------------------------------------------------|
|----------------------------------------------------------|


                              * Unsure about this part cos *
4:51                            * the saxaphone dominates*
|----------------------------|------------------------------|
|----------------------------|---------------12-14-12-------|
|----11-14-11^-14-11-9-7-11^-|-14-11-9-11-14----------14-11-|
|----------------------------|------------------------------|
|-12-------------------------|------------------------------|
|----------------------------|------------------------------|

|----------|------------------------|-----------|-------------------------|
|----------|-------7----------------|-7-7--7-7^-|--------7---------7----7-|
|---7-9-7--|---7h9---7--------------|-7-7--7-7^-|----7-9---7-----7---9--7-|
|-7--------|-7---------7-9-9-9p7h9--|-7-7--7-7^-|--7---------7-9----------|
|----------|------------------------|-----------|-------------------------|
|----------|------------------------|-----------|-------------------------|


Ok, this is my 2nd version of Local hero, this time its the Alchemy version (Track 5 on CD2) there is 1 area which im unsure about cos the saxaphone dominates and i cant hear it very well, but ive tried by best, hope its all right :D
            

comments powered by Disqus
↑ Back to top | Dire Straits Tabs for Going Home / Local Hero. Lyrics for acoustic guitar and electric guitar. Tablatures and chords are parodies/interpretations of the original songs. You may use it for private study, scholarship, research or language learning purposes only