>
 >
Dire Straits

Dire Straits Guitar Tabs

Dire Straits - Dire Straits chords, tabs, tablatures, lyrics

Guitar lessons | Add/correct | Request | Top 50 tabs Artists:  A B C D E F G H I J K L M N O P Q R S T U V W X Y Z 0-9

Dire Straits Guitar Tabs – Dire Straits

CD, Sheet music, Poster

Do you like Dire Straits? Share with your friends now
Tabs
PROPS GO TO: Sindre Froyn

sultans of swing by dire straits
+++++++++++++++++++++++++++++++

+++++++++
Solo 1  +***********************************************************************************
+++++++++

  3:29                          3:33                                               3:40  
e|--------------------------------------9-12-10--------------------------------------------|
h|10--10-10-10------------------------10-------10------11-13-11h13r11-10h11r10-11-9--9-10--|
g|------------10h12r10-9h10r9--------9-----------10----------------------------------------|
D|---------------------------------11--------------12--------------------------------------|
A|-------------------------------12--------------------------------------------------------|
E|-----------------------------12----------------------------------------------------------|
                                                                                         
   3:41                                                       3:50                        
e|-----13----------13-12----------------------------------------13-10-----10---------------|
h|--13---13-------------13--------13-13-13---15-15-13--15-15--10-----10-13--13-10----------|
g|14-------14-------------12-14-12-------------------15--------------------------12-10-----|
D|-----------15-15-------------------------------------------------------------------------|
A|-----------------------------------------------------------------------------------------|
E|-----------------------------------------------------------------------------------------|
                                                                                      
    3:53                                                  
e|-----------------------------------------------------------------------------------------|
h|-----3h6r3---5-6-8-6-5-6-8-6------3h6r3---------5--8-5-----5-----------------------------|
g|---3---------5------------------3-----------5-7--------7-5---7---------------------------|
D|-3-----------5----------------3-----------5----------------------------------------------|
A|-----------------------------------------------------------------------------------------|
E|-----------------------------------------------------------------------------------------|
                                                                                      
+++++++++
Solo 2  +***********************************************************************************
+++++++++
                                                              5:06                       
   4:59                  5:02                                                       
e|-----------------------------------------------------------------------------------------|
h|-10--------------------10---------------------------------10-8h10r8----8-----------------|
g|----12-10-12-10-----------10h12r10-7h10r7-5h7r5---------------------10---10-7------------|
D|----------------12-12--------------------------5h7r5-------------------------------------|
A|----------------------------------------------------5h7r5--------------------------------|
E|-----------------------------------------------------------------------------------------|
                                                                                        
    5:09                                      5:12                                        
e|-----5h8-----5h8-----5h8-----------------------13-10-------------------------------------|
h|-5h8-----5h8-----5h8-----5------------------10------13-10--------------10----------------|
g|---------------------------------------------------------12-10------------12-------------|
D|--------------------------------------------------------------12--10-12------------------|
A|-----------------------------------------------------------------------------------------|
E|-----------------------------------------------------------------------------------------|
                                                                                      
    5:15                             5:18                                                 
e|----------------------12-----10---13r10---10-----13r10---10-----15r12---12------15r12----|
h|------10-------11---13--13-11-----------10--(x4)-------11---(x4)------13---(x7)-------13-|
g|10-12----10-12---------------------------------------------------------------------------|
D|-----------------------------------------------------------------------------------------|
A|-----------------------------------------------------------------------------------------|
E|-----------------------------------------------------------------------------------------|
                                                                                           
                                                                                        
e|-13r10---10-----13r10---10-----15r12---12------15r12-------------------------------------|
h|-------10--(x4)-------11---(x4)------13---(x7)-------13----------------------------------|
g|-----------------------------------------------------------------------------------------|
D|-----------------------------------------------------------------------------------------|
A|-----------------------------------------------------------------------------------------|
E|-----------------------------------------------------------------------------------------|
                                                                                        
     5:32                                                                                
e|--17--17-15---------------15---17--15h17r15----------------------------------------------|
h|------------18-15---15-18-------------------15h18r15-13h15r13-10h13r10-------------------|
g|-----------------------------------------------------------------------9h12r9------------|
D|------------------------------------------------------------------------------10h12r10---|
A|---------------------------------------------------------------------------------------12|
E|-----------------------------------------------------------------------------------------|
                                                                                      
                                                                                          
Notation Legend:
h=hammer
r=release (pull off)
s=slide
b=bend
bs=bend and slide (duh!)
3:29= 3 minutes and 29 seconds into song (duh!)

Oslo 23 september 2002





Comments


Popular Dire Straits tabs & chords
Planet Of New Orleans Chords
Private Investigations Chords
Romeo And Julien Chords
Where Do You Think Chords
Why Worry Chords
Expresso Love Live Tabs
Local Hero Live 1 Tabs
Money For Nothing 1 Tabs
Money For Nothing Intro Tabs
Penger For Ingenting Tabs


Song lyrics



↑ Back to top | Tablatures and chords are parodies/interpretations of the original songs. You may use it for private study, scholarship, research or language learning purposes only
© 2014 AZChords.com Contact us | Privacy policy | DMCA | Add/correct tabs | Request tabs | Top 50 tabs