>
 >
Brothers In Arms Live 1

Brothers In Arms Live 1 Guitar Tabs

Dire Straits - Brothers In Arms Live 1 chords, tabs, tablatures, lyrics

Guitar lessons | Add/correct | Request | Top 50 tabs Artists:  A B C D E F G H I J K L M N O P Q R S T U V W X Y Z 0-9

Brothers In Arms Live 1 Guitar Tabs – Dire Straits

CD, Sheet music, Poster

Do you like Brothers In Arms Live 1? Share with your friends now
TabsTabs v2
-------------------------------------------------------------------------------
                             SONG NAME - Band Name
-------------------------------------------------------------------------------

Tuning: Standard

Intro
------------|-----------------|---|--------------|---------------------|-------|
------------|-----------------|---|--------------|---4-5-4-------------|---4---|
------3-----|-3-3-4-3---------|---|-6---~(7)~6-4-|-6-------6^4^3-------|-4---6-|
----6---6-6-|---------6-4-6-6-|---|--------------|---------------4-6-6-|-------|
->6---------|-----------------|---|--------------|---------------------|-------|
------------|-----------------|---|--------------|---------------------|-------|

-----------------|---|-------------|---------------------------|---------|-----|
-----------------|---|-------------|-------4-------------------|---4-----|-4---|
-----4^6~(7)~6^4-|---|-4-6^4^6^4^3-|---------6-4-3-4-3---------|-4---6-6-|-----|
-4^6-------------|---|-------------|----6--------------6-4^6-6-|---------|-----|
-----------------|---|-------------|->6------------------------|---------|-----|
-----------------|---|-------------|---------------------------|---------|-----|

2:06 on cd

-2---2-----|---|-------|-----------------|-----------------|---------|-----|
-----------|---|-------|-----------------|-----------------|---4^5---|-4---|
---4---1^3-|---|---4-4-|-3^6-4-3---------|---4^6~(7)~6^4^6-|-4-----6-|-----|
-----------|---|-6-----|---------6-4^6-6-|-6---------------|---------|-----|
-----------|---|-------|-----------------|-----------------|---------|-----|
-----------|---|-------|-----------------|-----------------|---------|-----|

3:17
---------|-----------------------|--------------------------|---------|---|
-7~(9)---|-7~(9)-7-4-------------|-----4--------------------|-----4---|---|
---------|-----------6-4^3-------|---4---6-4----4^6~(7)~6^4-|---4---6-|---|
---------|-----------------4^6-6-|-6----------6-------------|-6-------|---|
---------|-----------------------|--------------------------|---------|---|
---------|-----------------------|--------------------------|---------|---|

-------------------------|
-------------------------|
-4>6-4>6-4>3-------------|
-------------6^4---------|
-----------------2>4-2---|
-----------------------4-|

3:56
-----------|-------|---------------------|-4^6-4-------|------4^6^4-6^4-6^4-6^4-6^4-|
-----------|-------|-------------4-7~(9)-|-------7-5-5-|-7~(9)----------------------|
---9-9-9-9-|---9-9-|-----------4---------|-------------|----------------------------|
---9-9-9-9-|---9-9-|---------6-----------|-------------|----------------------------|
-7---7-7-7-|---7-7-|-4>6-4>6-------------|-------------|----------------------------|
-----------|-------|---------------------|-------------|----------------------------|

-------4-------|-----4--------5--------------------------------|------------------|
-7-5-7---5^7^5-|---4---4-7~(9)----|-7^4---4---------------------|-----------------|
---------------|-6----------------|-----6---6^4-3-4^3---3-------|---6~(8)~6^4^6---|
---------------|------------------|-------------------6---4^6-6-|--x--------------|
---------------|------------------|-----------------------------|-x---------------|
---------------|------------------|-----------------------------|-----------------|

------------------------------|---|
-4-5-4---5-4------------------|---|
-------------6^4>3-6-4-3------|---|
------------------------4-6-6-|---|
------------------------------|---|
------------------------------|---|

-------------------------|
-------------------------|
-4>6-4>6-4>3-------------|
-------------6^4---------|
-----------------2>4-2---|
-----------------------4-|

5:22

---------|-------4-6-4-----------------|-----------------------|---------------|
-7~(9)---|-7~(9)-------6^4-6^4---4-----|-----------------4-----|---------------|
---------|---------------------6---6^4-|---6-4---4-----4---4-6-|-~(7)~6^4^6----|
---------|-----------------------------|---6-4-----4^6---------|---------------|
---------|-----------------------------|-4---------------------|---------------|
---------|-----------------------------|-----------------------|---------------|

------------------------|---------------|------------------------------|-----|
------4-5-4---4---------|---------------|-------4----------------------|-----|
----6-------6---6^4>3-6-|-4^3---3-------|-----4---4^6~(7)~6^4^6--------|-----|
--x---------------------|-----6---4^6-6-|-4^6--------------------6-6---|-4-6-|
-x----------------------|---------------|------------------------------|-----|
------------------------|---------------|------------------------------|-----|

-----------------|---------|-------4---4---4^6-7-|---7~(9)-7-6-4-|-----6---------6-7-7-|
-----------------|-4^5---4-|-----4---4---4-------|---------------|-7^9---9---7^9-------|
-----------6---6-|-----6---|-3^4-----------------|---------------|---------------------|
---------6---6---|---------|---------------------|---------------|---------------------|
-6^7-6^7---------|---------|---------------------|---------------|---------------------|
-----------------|---------|---------------------|---------------|---------------------|

-------------12---------|-12-------------------------|----------------------------------|
-9---12~(14)----12~(14)-|----12~(14)---12~(14)~12-11-|-12^11>9--------------------------|
------------------------|----------------------------|---------11^8---8-----------------|
------------------------|----------------------------|--------------9---9>11-9-8--------|
------------------------|----------------------------|---------------------------11^9^11|
------------------------|----------------------------|----------------------------------|

------------------|-------4-2-4-----------------------|
------4-----------|-----4-------5^4^2---2^4-2---------|
--------6-4>3-----|-2>4---------------4-------4^3^1---|
----6---------6-6-|-----------------------------------|
->6---------------|-----------------------------------|
------------------|-----------------------------------|

7:08
--------------------------|----------------------|---------16^18-16---16-|---------|
-19-----------19----19-17-|-16-19^16----16-19-16-|-19~(21)----------19---|-19~(21)-|
-18~(20)---16----16-------|----------18----------|-----------------------|---------|
--------------------------|----------------------|-----------------------|---------|
--------------------------|----------------------|-----------------------|---------|
--------------------------|----------------------|-----------------------|---------|

-16-19^16----16-|-19~(21)-19~(21)-19~(21)-|-18-19~(21)-19-18-19~(21)-|
----------16----|-------------------------|--------------------------|
----------------|-------------------------|--------------------------|
----------------|-------------------------|--------------------------|
----------------|-------------------------|--------------------------|
----------------|-------------------------|--------------------------|

-19-18-16--------------------------------------|-----------------------------------|
----------19^16-19^16----16--------------------|-9---------9-11-12-12~(14)-12-11-9-|
----------------------18----18^16^15-----------|---11~(13)-------------------------|
--------------------------------------16^18-18-|-----------------------------------|
-----------------------------------------------|-----------------------------------|
-----------------------------------------------|-----------------------------------|

------9---------------------|----4---4^7-4---4---------------------|
-12^9---12^11^9---9---------|--x---7-------7---4^5^4---------------|
----------------11---11-9-9-|-x----------------------6-4>3^4^3-----|
----------------------------|----------------------------------4>6-|
----------------------------|--------------------------------------|
----------------------------|--------------------------------------|
I know i haven't tabbed the verses here, but plz plz plz if anyone could tab them for





Comments


Popular Dire Straits tabs & chords
Sultans Of Swing 3 Bass Tabs
Single Handed Sailor Chords
The Mans Too Strong 2 Chords
Why Worry 2 Chords
Calling Elvis Intro Tabs
Expresso Love Tabs
Going Home / Local Hero Tabs
Romeo And Juliet 5 Tabs
Sultans Of Swing 4 Tabs
Where Do You Think Tabs


Song lyrics



↑ Back to top | Tablatures and chords are parodies/interpretations of the original songs. You may use it for private study, scholarship, research or language learning purposes only
© 2014 AZChords.com Contact us | Privacy policy | DMCA | Add/correct tabs | Request tabs | Top 50 tabs