» » »

Coccinelle Tabs (ver.1)

Artists:  A B C D E F G H I J K L M N O P Q R S T U V W X Y Z # 

Coccinelle Tabs (ver.1)

Dionysos
Rating:
0/5 (0 votes)

Tabs too difficult? Try these video lessons and learn fast.
                INTRO
(Two guitars)

Gtr 1                                                        x4
------------------------|------------------------||
------------------------|------------------------||
------------------------|------------------------||
--0-0---0-0--3-5/7-5-2--|-0-0---0-0--3-5/7-5-5^7-||
------------------------|------------------------||
------------------------|------------------------||

--------------------------
--------------------------
--------------------------
--5--7--8---------7-5-----
--------------------------
--------------------------

Gtr 2 :          Dm                           Fm
Gtr 1 (slide)
                                                                         x4
-------------------10--------|----10--------|----13-------|----13-------||
----------------10-------10--|-10-------10--|-13-------13-|-13-------13-||
----------------------10-----|-------10-----|-------13----|-------13----||
-----------------------------|--------------|-------------|-------------||
-----------------------------|--------------|-------------|-------------||
-----------------------------|--------------|-------------|-------------||

COUPLET
(Bass and piano play this together)
-------------------|
-0-0-0-0-7-0-5-0---|
-------------------|
-------------------|

Dm
Jamais ma coccinelle, je ne t'abandonnerai
F
Ma fée toute cabossée, au télécran du ciel
Dm
A s'embrasser les cils comme des pinceaux cignotants
F
Lacrymal acrylique je sais que j'écris mal
Dm
Et j'imagine très bien, l'ombre de nos cils
F                                                 N.C.
Flotter tranquillement sur l'arc en ciel de nos dents

Gtr 1                                           |-------------|
                                                |-------------|
                                                |-14-14-14-14-|
                                                |-------------|
                                                |-------------|
                                                |-------------|

REFRAIN
(Lots of distortion on both guitars)

D5                F5
Je ne sais pas conduire, pas même un cerf volant
D5                F5                      A5       F5
Je ne sais pas conduire, pas même un cerf volant--------
                  A5       F5
Pas même un cerf volant---------

Then repeat the intro, couplet and refrain ad lib.
            
Tabs too difficult? Try these video lessons and learn fast.


comments powered by Disqus
↑ Back to top | Tablatures and chords are parodies/interpretations of the original songs. You may use it for private study, scholarship, research or language learning purposes only