» » »

That's What Friends Are For Tabs (ver.3)

Artists:  A B C D E F G H I J K L M N O P Q R S T U V W X Y Z # 

That's What Friends Are For Tabs (ver.3)

Dionne Warwick
Rating:
0/5 (0 votes)

Hard to play? Try these video lessons and learn fast.
                Intro
e|-----0-1-------0-1--|-----0-1----5-6-5------|------------------------------||
B|--1---------1-------|--1---------------6----|-------5-6--------------------||
G|--------------------|--------------------7--|--5-----------5---------------||
D|--------------------|-----------------------|------------------------------||
A|--------------------|-----------------------|------------------------------||
E|--------------------|-----------------------|------------------------------||
                        Verse (below)
e|--------1-6-5-------||----------------------|------------------------------||
B|------3-------6-----||----------------------|------------------------------||
G|--3-3---------------||------------0-----2-3-|--0-2-3-2-2----0-0------------||
D|--------------------||--------------3-3-----|------------------------------||
A|--------------------||-5-3--0-1-3-----------|------------------------------||
E|--------------------||----------------------|------------------------------||

e|--------------------|-----------------------|---------|--------------------||
B|---1----------------|-----------------------|---------|--------------------||
G|-----3-2--0-0----2--|--------------------0--|---------|----------0-----2-3-||
D|---------------3----|------3-2-0-2-3--------|--3-2-0--|------------3-3-----||
A|-3------------------|-----------------------|---------|--3-0-1-3-----------||
E|--------------------|-----------------------|---------|--------------------||

e|--------------------|-----------------------|------------------------|-----||
B|--------------------|----1------------------|------------------------|-----||
G|-0-2-3-2-2-----0-0--|------3-2--0-0-----2---|--------------------0---|-----||
D|--------------------|-----------------3-----|-------3-2-0-2-3------3-|--2--||
A|--------------------|--3--------------------|------------------------|-----||
E|--------------------|-----------------------|------------------------|-----||



Chorus
e|--------------------|-----------------------|------------------------------||
B|--------------------|-----------------------|----------1-------------------||
G|--------------------|------------3-2--------|----------0--2----------------||
D|--3-3------3-3------|-0---0----3-----3-0----|-------------3----------------||
A|------3--------3----|---1-------------------|--3---------------------------||
E|--------------------|-----------------------|------------------------------||

e|-----------------|-----------------|----------------------------|----------||
B|-----------------|-----------------|-1--1--1----1--3--1---------|----------||
G|--------1---3----|-----------------|-0--0--0----0--0--0--2-2--3-|--2-0-----||
D|--2--3--2---3--3-|-------------0-2-|---------------------3----3-|----------||
A|--3--5---------5-|-3-3-------3-----|----------------------------|----------||
E|-----------------|-----3-----------|----------------------------|----------||

e|-----------------|-----------------||
B|-----------------|-----------------||
G|--2-0-2----3-----|-----------------||
D|-----------------|-----------------||
A|-----------------|------3----------||
E|-----------------|-----------------||



Verse
e|-----------------------|--------------------|------------------------------||
B|-----------------------|--------------------|------------------------------||
G|-----------0-----2-3---|--0-2-3-2-2----0-0--|------------------------------||
D|-------------3-3-------|--------------------|------------------------------||
A|--3--0-1-3-------------|--------------------|------------------------------||
E|-----------------------|--------------------|------------------------------||

e|--------------------|-----------------------|---------|--------------------||
B|---1----------------|-----------------------|---------|--------------------||
G|-----3-2--0-0----2--|--------------------0--|---------|----------0-----2-3-||
D|---------------3----|------3-2-0-2-3--------|--3-2-0--|------------3-3-----||
A|-3------------------|-----------------------|---------|--3-0-1-3-----------||
E|--------------------|-----------------------|---------|--------------------||

e|--------------------|-----------------------|------------------------|-----||
B|--------------------|----1------------------|------------------------|-----||
G|-0-2-3-2-2-----0-0--|------3-2--0-0-----2---|--------------------0---|-----||
D|--------------------|-----------------3-----|-------3-2-0-2-3------3-|--2--||
A|--------------------|--3--------------------|------------------------|-----||
E|--------------------|-----------------------|------------------------|-----||



Chorus (x3)
e|--------------------|-----------------------|------------------------------||
B|--------------------|-----------------------|----------1-------------------||
G|--------------------|------------3-2--------|----------0--2----------------||
D|--3-3------3-3------|-0---0----3-----3-0----|-------------3----------------||
A|------3--------3----|---1-------------------|--3---------------------------||
E|--------------------|-----------------------|------------------------------||

e|-----------------|-----------------|----------------------------|----------||
B|-----------------|-----------------|-1--1--1----1--3--1---------|----------||
G|--------1---3----|-----------------|-0--0--0----0--0--0--2-2--3-|--2-0-----||
D|--2--3--2---3--3-|-------------0-2-|---------------------3----3-|----------||
A|--3--5---------5-|-3-3-------3-----|----------------------------|----------||
E|-----------------|-----3-----------|----------------------------|----------||

e|-----------------|-----------------||
B|-----------------|-----------------||
G|--2-0-2----3-----|-----------------||
D|-----------------|-----------------||
A|-----------------|------3----------||
E|-----------------|-----------------||



VERSE
 And I never thought I'd feel this way
 And as far as I'm concerned
 I'm glad I got the chance to say
 That I do believe I love you

 And if I should ever go away
 Well then close your eyes and try
 To feel the way we do today
 And then if you can remember

CHORUS
 Keep smiling, keep shining
 Knowing you can always count on me, for sure
 That's what friends are for
 For good times and bad times
 I'll be on your side forever more
 That's what friends are for

VERSE
 Well you came and opened me
 And now there's so much more I see
 And so by the way I thank you

 And then for the times when we're apart
 Well then close your eyes and know
 These words are coming from my heart
 And then if you can remember

CHORUS (x3)
            
Hard to play? Try these video lessons and learn fast. | Correct




comments powered by Disqus
↑ Back to top | Tablatures and chords are parodies/interpretations of the original songs. You may use it for private study, scholarship, research or language learning purposes only