» » »

We Rock Bass tabs (ver.1)

Artists:  A B C D E F G H I J K L M N O P Q R S T U V W X Y Z # 

We Rock Bass tabs (ver.1)

Dio
Rating:
0/5 (0 votes)

Hard to play? Try these video lessons and learn fast.
                DIO - The Last In Line

Bass tab by Andre Couto (aka "Andre The Wizard (murder in the rue morgue)")


note: "*"s are used to represent the same note X times (listen to the song).
% = repeat previous bar

   intro
G-----|-------|---------------|------|-----------|--------||
D-----|-------|--3-2-0-2-3-2--|------|-----------|--------||
A-----|-------|---------------|------|-----------|--3--2--||
E--5--|--5-5--|---------------|--5*--|--1--3--0--|--------||

G------------------------------------|-----|-------------|
D------------------------------------|-----|-------------|
A---------------------------------3--|--%--|--------3-2--|
E--5-5-5-5-5-5-5-3--5-5-5-5-5-5-5----|-----|--3*---------|

  "but only we can see"                "they come for killing"
G------------------------------------|------------------------------------|
D------------------------------------|------------------------------------|
A----------------3-------------------|----------------3----------------3--|
E--5-5-5-5-5-5-5----5-5-5-5-5-5-5-3--|--5-5-5-5-5-5-5----5-5-5-5-5-5-5----|

  "they leave and still it seems"  
G------------------------------------|-----------------|
D------------------------------------|-----------------|
A------------------------------------|--3*----2--------|
E--5-5-5-5-5-5-5-3--5-5-5-5-5-5-5-3--|-----------5*----|

          "cause we rock"          (1:50)
G------|-----------------------||--------------------|
D------|-----------------------||--------------------|
A------|------------------3-2--||-----------2--3--5--|
E--3*--|--5*--------1*---------||--1--3--5-----------|

  (2:03)                         solo
G-----------------------------||--------------------|--------------------|
D--3--2--0--2--3--2-----------||--------------------|--------------------|
A-----------------------------||--5*----2-3*--------|--5*----2-3*--------|
E--------------------1--3--5--||----------------5*--|----------------1*--|

   2:22 fill, too low to figure out
G--------------||
D--3--2--------||
A--------5--3--||
E--------------||

G--------------------------|-----------------------||
D--------------------------|-----------------------||
A--5*----2-3*----------2-3-|--5*----2-3*-----------||
E----------------5*--------|----------------1*--0--||

  (2:47)               3:43 "we rock" fade out
G--------------------|--------------------------||
D--------------------|--------------------------||
A-----------2--3--5--|--------8*----------8*----||
E--1--3--5-----------|--5*----------5*----------||
            
Hard to play? Try these video lessons and learn fast. | Correct




comments powered by Disqus
↑ Back to top | Tablatures and chords are parodies/interpretations of the original songs. You may use it for private study, scholarship, research or language learning purposes only