>
 >
 >
The Last In Line 2

The Last In Line 2 Bass Tabs

Dio - The Last In Line 2 chords, tabs, tablatures, lyrics

Guitar lessons | Add/correct | Request | Top 50 tabs Artists:  A B C D E F G H I J K L M N O P Q R S T U V W X Y Z 0-9

The Last In Line 2 Bass Tabs – Dio

CD, Sheet music, Poster

Do you like The Last In Line 2? Share with your friends now
Bass TabsBass Tabs v2Bass Tabs v3TabsTabs v2Tabs v3
Dio
The Last In Line


standard E A D G tuning

 Intro

(00:9)
1---------------------------------------------|
2---------------------------------------------|
3---------------------------------------3-----|
4-3----5--7--8---7--5-5-5--5-7-8--7--1-----1--|

1---------------------------------------------|
2---------------------------------------------|
3---------------------------------------------|
4-5-7--8---7--5-5-5--5-7-8--7--3--------5-7-8-|

1------------------------|
2------------------------|
3------------------------|
4-7--5-5-5--5-7-8--7-5-3-|

1---------------------------------------------------|
2-------------------------------------------------77|
3----------------------------------------------5h7--|
4---5-5-5\------5-5-5\------5-5-5\------5-5-5\------|

1-------------------------------------------------------------------|
2-------7--------------7--------------7--------------7--------------|
3---------5h77-3h55------5h77-3h55------5h77-3h55-------5---5-3-----|
4---5-5------------5-5------------5-5------------5-5------3-----5-3-|

   Verse

1----------------------------------------------------------------|
2-------------------------------------------------------------5h7|
3----------------------------------------------------------5h7---|
4--5-5-----5-5-----5-5-----5-5-3-333-333-333-33-55-5-5555--------|

1------------------------------------------"down"-|
2-------------------------------------------------|
3-------------------------------------------------|
4--5-5-----5-5-----5-5-----5-5-3-333-333-333-33\--|


1------------------------------------------------------------|
2------------------------------------------------------------|
3------------------------------------------------------------|
4--5-5-----5-5-----5-5-----5-5-3-333-333-333-335-555-555-555-|

  Chorus

1-------------------------------------------------------------------|
2-------------------------------------------------------------------|
3-5-3-------------------5-3-------------------5-3-------------------|
4----5-3--1--1-1--1-1-1----5-3--1--1-1--1-1-1----5-3--3--3-3--3-3-3-|

1----------------------------------------------------------|
2----------------------------------7-------------7---------|
3-5-3--------------------------------5h773h55------5h773h55|
4----5-3--3--3-3--3-3-3--3-3---5-5-----------5-5-----------|

1----------------------------------|
2-----7-------------7--------------|
3-------5h773h55------5----5-3-----|
4-5-5-----------5-5-----3------5-3-|

  Verse

1--------------------------------------------------------|
2--------------------------------------------------------|
3--------------------------------------------------------|
4-5-5-----5-5-----5-5-----5-5-3-333-333-333-33-55-5-5555-|

1-----------------------------------------------------------|
2-----------------------------------------------------------|
3-----------------------------------------------------------|
4-5-5-----5-5-----5-5-----5-5-3-333-333-333-335-555-555-555-|

  Chorus

1-------------------------------------------------------------------|
2-------------------------------------------------------------------|
3-5-3-------------------5-3-------------------5-3-------------------|
4----5-3--1--1-1--1-1-1----5-3--1--1-1--1-1-1----5-3--3--3-3--3-3-3-|

1---------------------------------------------------------|
2---------------------------------7-------------7---------|
3-5-3-------------------------------5h773h55------5h773h55|
4----5-3--3--3-3--3-3-3--3-3--5-5-----------5-5-----------|

1---------------------------------|
2-----7-------------7-------------|
3-------5h773h55------5---5-3-----|
4-5-5-----------5-5-----3-----5-3-|

  During Solo

1-------------------------------------------------------------------------|
2-------------------------------------------------------------------------|
3------------7-5--------------7-5-----------------------------7-5---------|
4-5-5------------8-7-5-5----------8-5-7-7--------5-7-7------------8-7-5-5-|

1--------------------------------------------------------|
2--------------------------------------------------------|
3----7-5----------------7-5------------------------------|
4--------8-7-5-5------------8-5-7-7--------5-7-7---7-7-7-|

1------------------------------------------------------------------|
2------------------------------------------------------------------|
3---------------7-5-------------------9-7--------------------------|
4-5-555-555-55------8-7-5-555-555-55------10-9-7-777-777-777---5-7-|

1-----------------------------------------------------------------|
2-----------------------------------------------------------------|
3-------------7-5------------------7-5-------------------9-7------|
4-777-777-77------8-7-5-555-555-55------8-7-5-555-555-55-----10-9-|

1---------------------------------------|
2---------------------------------------|
3---------------------------------------|
4-7-777-777-777-777-777-777-777-777-77--|

   Bridge Out

1-----------------------------------------------|
2-----------------------------------------------|
3---------------------------------------7-5-----|
4--5-5-5-----5-5-5-----5-5-5-----5-5-5------8-7-|

   Verse

1--------------------------------------------------------|
2--------------------------------------------------------|
3--------------------------------------------------------|
4-5-5-----5-5-----5-5-----5-5-3-333-333-333-33-55-5-5555-|

1----------------------------------------------|
2----------------------------------------------|
3----------------------------------------------|
4-5-5-----5-5-----5-5-----5-5-3-333-333-333-33-|

   Chorus

1-------------------------------------------------------------------|
2-------------------------------------------------------------------|
3-5-3-------------------5-3-------------------5-3-------------------|
4----5-3--1--1-1--1-1-1----5-3--1--1-1--1-1-1----5-3--3--3-3--3-3-3-|

1----------------------------|
2----------------------------|
3-5-3------------------------|
4----5-3--3--3-3--3-3-3--3-3-|

1-------------------------------------|
2-------------------------------------|
3-------------------------------------|    X2
4-5-5-5-----5-5-5-----5-5-5-----5-5-5-|

1-----------------------------|
2-----------------------------|
3-------5h773h55------5h773h55|   fade out
4-5-5-5---------5-5-5---------|





Comments


Popular Dio tabs & chords
Breathless Bass Tabs
Metal Will Never Die Bass Tabs
Rainbow In The Dark 3 Bass Tabs
We Rock 2 Bass Tabs
Along Comes A Spider (Intro Ver 2) Tabs
End Of The World Intro Tabs
Rainbow In The Dark Tabs
Rainbow In The Dark 1 Tabs
Rainbow In The Dark 2 Tabs
Scream Intro Tabs


Song lyrics



↑ Back to top | Tablatures and chords are parodies/interpretations of the original songs. You may use it for private study, scholarship, research or language learning purposes only
© 2014 AZChords.com Contact us | Privacy policy | DMCA | Add/correct tabs | Request tabs | Top 50 tabs