>
 >
 >
Shivers

Shivers Guitar Tabs

Dio - Shivers chords, tabs, tablatures, lyrics

Guitar lessons | Add/correct | Request | Top 50 tabs Artists:  A B C D E F G H I J K L M N O P Q R S T U V W X Y Z 0-9

Shivers Guitar Tabs – Dio

CD, Sheet music, Poster

Do you like Shivers? Share with your friends now
Tabs
Dio - Shivers
Sorry...I don't put in all those fancy things like who plays what kind of guitar or the 
of measures.  Here's my interpretation of the song.
I'm only 13...cut me some slack if it's not perfect.

EbBbGbDbAbEb tuning

Intro

  __________________________________P.M.______________________________
  |                                                                   |
|-------------------------------------------------------------------------|
|-------------------------------------------------------------------------|
|-------------------------------------------------------------------------|
|-------------------------------------------------------------------------|
|-------------------------------------------------------------------------|
|---2-3-3-2-2-3-3-2-2-3-3-0-0-2-2-2-2-3-3-2-2-3-3-2-2-3-3-3-3-3-0-0-0-----|

(not sure if this part is a guitar...but here it is)
|-------------------------------------------------------------------------|
|-------------------------------------------------------------------------|
|-------------------------------------------------------------------------|
|---4-5-2p0--------------4-5-2p0------------------------------------------|
|-----------4--------------------4----------------------------------------|
|-------------2-2-3-0-2------------2-3-0----------------------------------|

Verse

  __________________________________P.M.____________________
  |                                                         |
|-------------------------------------------------------------------------|
|-------------------------------------------------------------------------|
|-------------------------------------------------------------------------|
|-------------------------------------------------------------------------|
|------------------------------------5-5-5-5-5-5-5-5---4h5-5p4-4~---------|
|---0-2-2-0-0-2-2-0-0-2-2-0-0-2-2-0---------------------------------------|

  __________________________________P.M.____________________
  |                                                         |
|-------------------------------------------------------------------------|
|-------------------------------------------------------------------------|
|----------------------------------------------------7--7-----------------|
|----------------------------------------------------7--7-----------------|
|----------------------------------------------------5--5-----------------|
|---0-2-2-0-0-2-2-0-0-2-2-0-0-2-2-0-0-0-0-0-0-0-0-0-----------------------|

  __________________________________P.M.____________________
  |                                                         |
|-------------------------------------------------------------------------|
|-------------------------------------------------------------------------|
|-------------------------------------------------------------------------|
|-------------------------------------------------------------------------|
|------------------------------------5-5-5-5-5-5-5-5---4h5-5p4-4~---------|
|---0-2-2-0-0-2-2-0-0-2-2-0-0-2-2-0---------------------------------------|

  __________________________________P.M.____________________
  |                                                         |
|-------------------------------------------------------------------------|
|-------------------------------------------------------------------------|
|----------------------------------------------------7-7-7-7-7------------|
|----------------------------------------------------7-7-7-7-7------------|
|----------------------------------------------------5-5-5-5-5------------|
|---0-2-2-0-0-2-2-0-0-2-2-0-0-2-2-0-0-0-0-0-0-0-0-0-----------------------|


Chorus

|-------------------------------------------------------------------------|
|-------------------------------------------------------------------------|
|--11s9-7-6-----------7--9-11--9--7--6--7---------------------------------|
|--11s9-7-6-----------7--9-11--9--7--6--7---------------------------------|
|---9s7-5-4--7s5-4-2--5--7--9--7--5--4--5---------------------------------|
|------------5s4-2-0------------------------------------------------------|


  __________________________________P.M.______________________________
  |                                                                   |
|-------------------------------------------------------------------------|
|-------------------------------------------------------------------------|
|-------------------------------------------------------------------------|
|-------------------------------------------------------------------------|
|-------------------------------------------------------------------------|
|---2-3-3-2-2-3-3-2-2-3-3-0-0-2-2-2-2-3-3-2-2-3-3-2-2-3-3-3-3-3-0-0-0-----|
|
|                            (again...timing is not corrolated)
|-------------------------------------------------------------------------|
|-------------------------------------------------------------------------|
|-------------------------------------------------------------------------|
|---4-5-2p0--------------4-5-2p0------------------------------------------|
|-----------4--------------------4----------------------------------------|
|-------------2-2-3-0-2------------2-3-0----------------------------------|


  __________________________________P.M.____________________
  |                                                         |
|-------------------------------------------------------------------------|
|-------------------------------------------------------------------------|
|-------------------------------------------------------------------------|
|-------------------------------------------------------------------------|
|------------------------------------5-5-5-5-5-5-5-5---4h5-5p4-4~---------|
|---0-2-2-0-0-2-2-0-0-2-2-0-0-2-2-0---------------------------------------|

  __________________________________P.M.____________________
  |                                                         |
|-------------------------------------------------------------------------|
|-------------------------------------------------------------------------|
|----------------------------------------------------7--7-----------------|
|----------------------------------------------------7--7-----------------|
|----------------------------------------------------5--5-----------------|
|---0-2-2-0-0-2-2-0-0-2-2-0-0-2-2-0-0-0-0-0-0-0-0-0-----------------------|

  __________________________________P.M.____________________
  |                                                         |
|-------------------------------------------------------------------------|
|-------------------------------------------------------------------------|
|-------------------------------------------------------------------------|
|-------------------------------------------------------------------------|
|------------------------------------5-5-5-5-5-5-5-5---4h5-5p4-4~---------|
|---0-2-2-0-0-2-2-0-0-2-2-0-0-2-2-0---------------------------------------|

  __________________________________P.M.____________________
  |                                                         |
|-------------------------------------------------------------------------|
|-------------------------------------------------------------------------|
|----------------------------------------------------7-7-7-7-7------------|
|----------------------------------------------------7-7-7-7-7------------|
|----------------------------------------------------5-5-5-5-5------------|
|---0-2-2-0-0-2-2-0-0-2-2-0-0-2-2-0-0-0-0-0-0-0-0-0-----------------------|

|-------------------------------------------------------------------------|
|-------------------------------------------------------------------------|
|--11s9-7-6-----------7--9-11--9--7--6--7---------------------------------|
|--11s9-7-6-----------7--9-11--9--7--6--7---------------------------------|
|---9s7-5-4--7s5-4-2--5--7--9--7--5--4--5---------------------------------|
|------------5s4-2-0------------------------------------------------------|


 __________________________________P.M.______________________________
  |                                                                   |
|-------------------------------------------------------------------------|
|-------------------------------------------------------------------------|
|-------------------------------------------------------------------------|
|-------------------------------------------------------------------------|
|-------------------------------------------------------------------------|
|---2-3-3-2-2-3-3-2-2-3-3-0-0-2-2-2-2-3-3-2-2-3-3-2-2-3-3-3-3-3-0-0-0-----|
|
|
|-------------------------------------------------------------------------|
|-------------------------------------------------------------------------|
|-------------------------------------------------------------------------|
|---4-5-2p0--------------4-5-2p0------------------------------------------|
|-----------4--------------------4----------------------------------------|
|-------------2-2-3-0-2------------2-3-0----------------------------------|

Solo
    ________________________________P.M.__________
    |                                            |
|-------------------------------------------------------------------------|
|-------------------------------------------------------------------------|
|--------------------------------------------------[9]fbr-p7--------------|
|---4-----4-5-----5-4-----4-5-----5-4-----4-5----------------h9-[9]~------|
|-----5-2-----5-2-----5-2-----5-2-----5-2-----5-2-------------------------|
|-------------------------------------------------------------------------|
                          TP TP TP TP TP
|-------------------------------------------------------------------------|
|-----------------------------------------[19]\----12b13rb13r--p10--------|
|-------------------------16-16-16-16-16---------------------------h11-11~|
|---12p11p9s7-7-7-7h9-----------------------------------------------------|
|-------------------------------------------------------------------------|
|-------------------------------------------------------------------------|
                                               ___________fast____________
                                               |                         |
|---------------------15-14p12----12-----------19p17p15----------17p15p14-|
|---13p12p10----12h13----------13----13p12p10-----------19p17p15----------|
|------------12-----------------------------------------------------------|
|-------------------------------------------------------------------------|
|-------------------------------------------------------------------------|
|-------------------------------------------------------------------------|
    __fast__
    |      |
|--------------------14h15p14------------------14h15p14-------------------|
|---17p15p14---12h13----------13p12-12h13---------------12-11h12p11-------|
|-----------------------------------------11~-----------------------12p11-|
|-------------------------------------------------------------------------|
|-------------------------------------------------------------------------|
|-------------------------------------------------------------------------|

|------------------------------------------------12fb-12fbr-10------------|
|------11h12p11----------11h12-14h15p14p12-14h15---------------12-(12)b15~|
|---12----------12p11h12--------------------------------------------------|
|-------------------------------------------------------------------------|
|-------------------------------------------------------------------------|
|-------------------------------------------------------------------------|

|-------------------------------------------------------------------------|
|------------------------------------------7\-----------------------------|
|---/14fbr-12-11-10~--10h11p10h11p10-9-7---7\-----------------------------|
|----------------------------------------9-7\-----------------------------|
|------------------------------------------5\-----------------------------|
|-------------------------------------------------------------------------|

 __________________________________P.M.______________________________
  |                                                                   |
|-------------------------------------------------------------------------|
|-------------------------------------------------------------------------|
|-------------------------------------------------------------------------|
|-------------------------------------------------------------------------|
|-------------------------------------------------------------------------|
|---2-3-3-2-2-3-3-2-2-3-3-0-0-2-2-2-2-3-3-2-2-3-3-2-2-3-3-3-3-3-0-0-0-----|
|
|
|-------------------------------------------------------------------------|
|-------------------------------------------------------------------------|
|-------------------------------------------------------------------------|
|---4-5-2p0--------------4-5-2p0------------------------------------------|
|-----------4--------------------4----------------------------------------|
|-------------2-2-3-0-2------------2-3-0----------------------------------|

  __________________________________P.M.____________________
  |                                                         |
|-------------------------------------------------------------------------|
|-------------------------------------------------------------------------|
|-------------------------------------------------------------------------|
|-------------------------------------------------------------------------|
|------------------------------------5-5-5-5-5-5-5-5---4h5-5p4-4~---------|
|---0-2-2-0-0-2-2-0-0-2-2-0-0-2-2-0---------------------------------------|

  __________________________________P.M.____________________
  |                                                         |
|-------------------------------------------------------------------------|
|-------------------------------------------------------------------------|
|----------------------------------------------------7--7-----------------|
|----------------------------------------------------7--7-----------------|
|----------------------------------------------------5--5-----------------|
|---0-2-2-0-0-2-2-0-0-2-2-0-0-2-2-0-0-0-0-0-0-0-0-0-----------------------|

  __________________________________P.M.____________________
  |                                                         |
|-------------------------------------------------------------------------|
|-------------------------------------------------------------------------|
|-------------------------------------------------------------------------|
|-------------------------------------------------------------------------|
|------------------------------------5-5-5-5-5-5-5-5---4h5-5p4-4~---------|
|---0-2-2-0-0-2-2-0-0-2-2-0-0-2-2-0---------------------------------------|

  __________________________________P.M.____________________
  |                                                         |
|-------------------------------------------------------------------------|
|-------------------------------------------------------------------------|
|---------------------------------------------------11s9-7----------------|
|---------------------------------------------------11s9-7----------------|
|----------------------------------------------------9s7-5----------------|
|---0-2-2-0-0-2-2-0-0-2-2-0-0-2-2-0-0-0-0-0-0-0-0-0-----------------------|

|-------------------------------------------------------------------------|
|-------------------------------------------------------------------------|
|--11s9-7-6-----------7--9-11--9--7--6--7---------------------------------|
|--11s9-7-6-----------7--9-11--9--7--6--7---------------------------------|
|---9s7-5-4--7s5-4-2--5--7--9--7--5--4--5---------------------------------|
|------------5s4-2-0------------------------------------------------------|


|-------------------------------------------------------------------------|
|-------------------------------------------------------------------------|
|-------------------------------------------------------------------------|
|-------------------------------------------------------------------------|
|---4s5-5s4-4s5-5s4-4s5-5-2-2-2-4-4-4-------------------------------------|
|---2s3-3s2-2s3-3s2-2s3-3-0-0-0-2-2-2-------------------------------------|

|-------------------------------------------------------------------------|
|-------------------------------------------------------------------------|
|-------------------------------------------------------------------------|
|-------------------------------------------------------------------------|
|---4s5-5s4-4s5-5s4-4s5-5-5-5-2-2-2---------------------------------------|
|---2s3-3s2-2s3-3s2-2s3-3-3-3-0-0-0---------------------------------------|


repeat the last two bars a couple times until the end.


Key:

P.M. = palm mute
p = pull off
h = hammer on
s = slide
[x] = pinched harmonic
fbr = full bend then release
TP = tremelo picking
b = bend
r = release bend
\ = slide down
/ = slide up
fb = full bend
(x) = held note





Comments


Popular Dio tabs & chords
Holy Diver 2 Bass Tabs
Rainbow In The Dark Bass Tabs
Straight Through The Heart Bass Tabs
The Last In Line Bass Tabs
We Rock Bass Tabs
Along Comes A Spider (Intro Ver 2) Tabs
Caught In The Middle 1 Tabs
In Dreams Intro Tabs
Rainbow In The Dark Tabs
We Rock Tabs


Song lyrics



↑ Back to top | Tablatures and chords are parodies/interpretations of the original songs. You may use it for private study, scholarship, research or language learning purposes only
© 2014 AZChords.com Contact us | Privacy policy | DMCA | Add/correct tabs | Request tabs | Top 50 tabs