» » »

Dio, Shame On The Night Tabs (ver.1)

Artists:  A B C D E F G H I J K L M N O P Q R S T U V W X Y Z # 

Shame On The Night Tabs (ver.1)

Dio Tabs
 Rating:
4/5 (4 votes)
Shame On The Night lessons Tabs too difficult? Try these video lessons and learn fast
1
                
Intro
G|-----------------------------------------------------||
D|-----------------------------------7h9---------------||
A|-----5-------------5---9-7-----5------------5--------||
E|-5-7---7-5-7---5-7---7-----5-7---7------5-7---7-5-3--||

Pre-Verse
G|-----------------------||
D|-----------------------||
A|-------------3-5-5-3---||
E|-3-5-5-5-5-3---------3-||

Verse
G|------------------------------------------------------||
D|------------------------------------------------------||
A|---------------------------------------------3--------||
E|-3-5-5-5-5-3-3-5-5-5-5-3-3-5-5-5-5-3-3-5-5-5---5-3-1--||


G|----------------|----------------------------------------||
D|-----------3----|-----------------------------5----------||
A|---2-3-(3)------|-2-3-5---2-3-------------3-5-----2-3----||
E|-3--------------|-------3-----3-5-5-5-5-3-------3-----3--||

Break
G|---------------------------------------||
D|-----7----------7---11-9-----7---7h9---||
A|-7-9---9-7--7-9---9------7-9---9-------||
E|---------------------------------------||

G|-----------------------------------------------------||
D|-----------------------------------5h7---------------||
A|-----5-------------5---9-7-----5------------5--------||
E|-5-7---7-5-7---5-7---7-----5-7---7------5-7---7-5-3--||


Play this until the song ends
G|----------------------|--------------------||
D|----------------------|--------------------||
A|-------8-7-5-3-5-7----|-------8-7-5-3-1-0--||
E|-5-7-8----------------|-5-7-8--------------||
            
Submit corrections

comments powered by Disqus
↑ Back to top | Dio Tabs for Shame On The Night. Lyrics for acoustic guitar and electric guitar. 1 Tablatures and chords are parodies/interpretations of the original songs. You may use it for private study, scholarship, research or language learning purposes only