>
 >
 >
Rock N Roll Children

Rock N Roll Children Guitar Tabs

Dio - Rock N Roll Children chords, tabs, tablatures, lyrics

Guitar lessons | Add/correct | Request | Top 50 tabs Artists:  A B C D E F G H I J K L M N O P Q R S T U V W X Y Z 0-9

Rock N Roll Children Guitar Tabs – Dio

CD, Sheet music, Poster

Do you like Rock N Roll Children? Share with your friends now
Tabs
    Am/D              Bbadd9/D          C/F   C     C/F   Am/D
   4/4
    Gtr I
                                                                            4x
||------------------|-----------------|-----------------|-------------------||
||o-----1-----1---1-|-----1-----1---1-|-----1-----1---1-|-----1-----1---1--o||
||----2-----2-------|---3-----3-------|---0-----0-------|---2-----2---------||
||--0-----0-----0---|-0-----0-----0---|-3-----2-----3---|-0-----0-----0-----||
||o-----------------|-----------------|-----------------|------------------o||
||------------------|-----------------|-----------------|-------------------||


    Am/D              Bbadd9/D          C/F   C     C/F   Am/D
    Gtr I
                                                                            3x
||------------------|-----------------|-----------------|-------------------||
||o-----1-----1---1-|-----1-----1---1-|-----1-----1---1-|-----1-----1---1--o||
||----2-----2-------|---3-----3-------|---0-----0-------|---2-----2---------||
||--0-----0-----0---|-0-----0-----0---|-3-----2-----3---|-0-----0-----0-----||
||o-----------------|-----------------|-----------------|------------------o||
||------------------|-----------------|-----------------|-------------------||
|
|   Gtr II
|                                                                           3x
||----------5-------|---------1-------|---------3-------|---------5---------||
||o-------6-----6---|-------3-----3---|-------5-----5---|-------6-----6----o||
||------7-----7-----|-----3-----3-----|-----5-----5---5-|-----7-----7-------||
||----7-------------|---3-------------|---5-------------|---7---------------||
||o-5---------------|-1---------------|-3---------------|-5----------------o||
||------------------|-----------------|-----------------|-------------------||


  Am/D              Bbadd9/D          C/F
|-----------------|-----------------|-0----(0)----|
|-----1-----1---1-|-----1-----1---1-|-1----(1)----|
|---2-----2-------|---3-----3-------|-0----(0)----|
|-0-----0-----0---|-0-----0-----0---|-3----(3)----|
|-----------------|-----------------|-------------|
|-----------------|-----------------|-------------|
|
|---------5-------|---------1-------|-------------|
|-------6-----6---|-------3-----3---|-------------|
|-----7-----7-----|-----3-----3-----|-5----(5)----|
|---7-------------|---3-------------|-5----(5)----|
|-5---------------|-1---------------|-3----(3)----|
|-----------------|-----------------|-------------|


    Q=135
    D5        Bb/D
    Gtr III
      PM----|   PM----|   PM------|   PM----|   PM|   PM|
||----------------------------|-----------------------------||
||o---------------------------|----------------------------o||
||--7---------7---------7-----|-----7---------7-----7-------||
||--7---------8---------8-----|-----8---------8-----8-------||
||o-5-5-5-5-5-5-5-5-5-5-5-5-5-|-5-5-5-5-5-5-5-5-5-5-5-5-5--o||
||----------------------------|-----------------------------||


    D5        Bb/D
      PM----|   PM----|   PM------|   PM----|   PM|   PM|
||----------------------------|----------------------------|
||o---------------------------|----------------------------|
||--7---------7---------7-----|-----7---------7-----7------|
||--7---------8---------8-----|-----8---------8-----8------|
||o-5-5-5-5-5-5-5-5-5-5-5-5-5-|-5-5-5-5-5-5-5-5-5-5-5-5-5--|
||----------------------------|----------------------------|


  D5        Bb/D
    PM----|   PM----|   PM------|   PM----|   PM|   PM|
|---------------------------|---------------------------|
|---------------------------|---------------------------|
|-7---------7---------7-----|-----7---------7-----7-----|
|-7---------8---------8-----|-----8---------8-----8-----|
|-5-5-5-5-5-5-5-5-5-5-5-5-5-|-5-5-5-5-5-5-5-5-5-5-5-5-5-|
|---------------------------|---------------------------|


 Verse
  D5
  Gtr III
     PM----|     PM----|   PM|
|------------------------------|
|------------------------------|
|--7----------7----------7-----|
|--7----------7----------7-----|
|--5-5-5-5-5--5--5-5-5-5-5-5-5-|
|------------------------------|
|
| Gtr IV
|------------------------------|
|-15---------15\---------------|
|-14---------14\---------------|
|-12---------12\---------------|
|------------------------------|
|------------------------------|


                                 G5/D
     PM----|     PM----|   PM|      PM----|     PM----|   PM|
|------------------------------|------------------------------|
|------------------------------|------------------------------|
|--7----------7----------7-----|--7----------7----------7-----|
|--6----------6----------6-----|--5----------5----------5-----|
|--5-5-5-5-5--5--5-5-5-5-5-5-5-|--5-5-5-5-5--5--5-5-5-5-5-5-5-|
|------------------------------|------------------------------|
|
|------------------------------|------------------------------|
|-15---------15\---------------|-15---------15\---------------|
|-13---------13\---------------|-12---------12\---------------|
|-12---------12\---------------|-12---------12\---------------|
|------------------------------|------------------------------|
|------------------------------|------------------------------|


  D5                      G5/D D5
     PM----|    PM|               PM----|     PM----|   PM|
|----------------------------|------------------------------|
|----------------------------|------------------------------|
|--7----------7------7--7--7-|--7----------7----------7-----|
|--7----------7------7--7--5-|--7----------7----------7-----|
|--5-5-5-5-5--5-5-5--5--5--5-|--5-5-5-5-5--5--5-5-5-5-5-5-5-|
|----------------------------|------------------------------|
|
|----------------------------|------------------------------|
|-15---------15-----15-15-15-|-15---------15\---------------|
|-14---------14-----14-14-12-|-14---------14\---------------|
|-12---------12-----12-12-12-|-12---------12\---------------|
|----------------------------|------------------------------|
|----------------------------|------------------------------|


     PM----|     PM----|   PM|
|------------------------------|
|------------------------------|
|--7----------7----------7-----|
|--6----------6----------6-----|
|--5-5-5-5-5--5--5-5-5-5-5-5-5-|
|------------------------------|
|
|------------------------------|
|-15---------15\---------------|
|-13---------13\---------------|
|-12---------12\---------------|
|------------------------------|
|------------------------------|


  G5/D
     PM----|     PM----|   PM|
|------------------------------|
|------------------------------|
|--7----------7----------7-----|
|--5----------5----------5-----|
|--5-5-5-5-5--5--5-5-5-5-5-5-5-|
|------------------------------|
|
|------------------------------|
|-15---------15\---------------|
|-12---------12\---------------|
|-12---------12\---------------|
|------------------------------|
|------------------------------|


  D5                      G5/D Bb5        C5
     PM--|      PM|
|----------------------------|----------|-------||
|----------------------------|----------|------o||
|--7----------7------7--7--7-|-3--------|-5-----||
|--7----------7------7--7--5-|-3--------|-5-----||
|--5-5-5-5-5--5-5-5--5--5--5-|-1--------|-3----o||
|----------------------------|----------|-------||
|
|----------------------------|----------|-------||
|-15---------15-----15-15-15-|----------|------o||
|-14---------14-----14-14-12-|-3--------|-5-----||
|-12---------12-----12-12-12-|-3--------|-5-----||
|----------------------------|-1--------|-3----o||
|----------------------------|----------|-------||


 Chorus
  Bb5        C5          D5           C5D5 F5   D5 C5
  Gtrs III, IV
|----------|-----------|------------|----------------|----------|--------|
|----------|-----------|------------|----------------|----------|--------|
|-3--------|-5------5--|-7------7-7-|-5-7--10\--7--5-|-5--------|-(5)----|
|-3--------|-5------5--|-7------7-7-|-5-7--10\--7--5-|-5--------|-(5)----|
|-1--------|-3------3--|-5------5-5-|-3-5---8\--5--3-|-3--------|-(3)----|
|----------|-----------|------------|----------------|----------|--------|


  D5           C5D5 F5   D5 C5             Bb5     A5
|------------|----------------|--------------|------------|
|------------|----------------|--------------|------------|
|-7------7-7-|-5-7--10\--7--5-|-5------(5)-3-|-3---2-2----|
|-7------7-7-|-5-7--10\--7--5-|-5------(5)-3-|-3---2-2----|
|-5------5-5-|-3-5---8\--5--3-|-3------(3)-1-|-1---0-0----|
|------------|----------------|--------------|------------|


 Guitar Solo
  D5              Bb5           C5            D5             D5
  Gtr III
   ~~~~~~~~~~~~~~~~~~~~~~~~~~~~~~~~~~~~~~~~~~~~~~~~~
|---------------|-------------|-------------|--------------|-------------------|
|-13b15=========|=(13)--------|-(13)--------|-(13)r--------|-10-x-x-----10\----|
|---------------|-------------|-------------|--------------|-10-x-x-----10\----|
|---------------|-------------|-------------|--------------|--------12---------|
|---------------|-------------|-------------|--------------|-------------------|
|---------------|-------------|-------------|--------------|-------------------|
|
| Gtr IV
|---------------|-------------|-------------|--------------|-------------------|
|---------------|-------------|-------------|--------------|-------------------|
|--7------------|---3---------|---5---------|---7----------|--7----------------|
|--7------------|---3---------|---5---------|---7----------|--7----------------|
|--5------------|---1---------|---3---------|---5----------|--5----------------|
|---------------|-------------|-------------|--------------|-------------------|


  Bb5                         C5
|---------------------------|----------------------------------|
|-----20b22=====(20)r-18h20-|-20b22==(20)r-20-18-----18\-------|
|-/x------------------------|--------------------19------------|
|---------------------------|-----------------------------[0]--|
|---------------------------|----------------------------------|
|---------------------------|----------------------------------|
|
|---------------------------|----------------------------------|
|---------------------------|----------------------------------|
|--3------------------------|--5-------------------------------|
|--3------------------------|--5-------------------------------|
|--1------------------------|--3-------------------------------|
|---------------------------|----------------------------------|


  D5
|---------------------------------------------------|
|---------------------------------------------------|
|---------------------------------------------------|
|-([0])-[0]-[0]-[2]-[2]-[2]-[3]-[3]-[3]-[5]-[5]-[5]-|
|---------------------------------------------------|
|---------------------------------------------------|
|
|---------------------------------------------------|
|---------------------------------------------------|
|---7-----------------------------------------------|
|---7-----------------------------------------------|
|---5-----------------------------------------------|
|---------------------------------------------------|


  D5               Bb5
    \1_____________________________________
|----------------|------------------------|
|----------------|------------------------|
|----------------|------------------------|
|-3-0------(0)---|-(0)----2h3p2p0h2h3p2p0-|
|----------------|------------------------|
|----------------|------------------------|
|
|----------------|------------------------|
|----------------|------------------------|
|-7--------------|--3---------------------|
|-7--------------|--3---------------------|
|-5--------------|--1---------------------|
|----------------|------------------------|


  C5                          D5
|---------------------------|--------------------------|
|-10-x-x-10-x-x-10\--x-x-10-|-(10)\-x-x-10--(10)---x-x-|
|-10-x-x-10-x-x-10\--x-x-10-|-(10)\-x-x-10--(10)---x-x-|
|---------------------------|--------------------------|
|---------------------------|--------------------------|
|---------------------------|--------------------------|
|
|---------------------------|--------------------------|
|---------------------------|--------------------------|
|--5------------------------|---7----------------------|
|--5------------------------|---7----------------------|
|--3------------------------|---5----------------------|
|---------------------------|--------------------------|


  D5
|-------------------------------------------10-|
|----------------------10----10-11-10-11-13----|
|-7-9-10-9-10-12-10-12----12-------------------|
|----------------------------------------------|
|----------------------------------------------|
|----------------------------------------------|
|
|----------------------------------------------|
|----------------------------------------------|
|-7--------------------------------------------|
|-7--------------------------------------------|
|-5--------------------------------------------|
|----------------------------------------------|


  Bb5
|-12-13-12-10------------------------------------|
|-------------13-11-10-11-10----10---------------|
|----------------------------12----12-10-12-10-9-|
|------------------------------------------------|
|------------------------------------------------|
|------------------------------------------------|
|
|------------------------------------------------|
|------------------------------------------------|
|--3---------------------------------------------|
|--3---------------------------------------------|
|--1---------------------------------------------|
|------------------------------------------------|


  C5                               D5
                         ~~~~
|--------------------------------|-------10h12p10-13b15---15--(15)\----|
|--------------------------------|-10-13----------------------------10-|
|-12-10----10--------------------|-------------------------------------|
|-------13----13-12-10-[10]--8\--|-------------------------------------|
|--------------------------------|-------------------------------------|
|--------------------------------|-------------------------------------|
|
|--------------------------------|-------------------------------------|
|--------------------------------|-------------------------------------|
|--5-----------------------------|--7----------------------------------|
|--5-----------------------------|--7----------------------------------|
|--3-----------------------------|--5----------------------------------|
|--------------------------------|-------------------------------------|


  D5
|-8h10h12p10p8------8h10h==12p10p8----8h10h==12p10p8------8h10h12p10p8------|
|----------------10----------------10------------------10----------------10-|
|---------------------------------------------------------------------------|
|---------------------------------------------------------------------------|
|---------------------------------------------------------------------------|
|---------------------------------------------------------------------------|
|
|          PM------------|            PM-------------|             PM--|
|---------------------------------------------------------------------------|
|---------------------------------------------------------------------------|
|-7----------------------------7--------------------------7-----------------|
|-7----------------------------7--------------------------7-----------------|
|-5--------5---5----5----5-----5------5----5-----5---5----5--------5---5----|
|---------------------------------------------------------------------------|


  Bb5
|-10h12h13p12p10------10h12h==13p12p10----10h12h==13p12p10------10h12h13p12p10------|
|------------------11------------------11--------------------11------------------11-|
|-----------------------------------------------------------------------------------|
|-----------------------------------------------------------------------------------|
|-----------------------------------------------------------------------------------|
|-----------------------------------------------------------------------------------|
|
|           PM--------------|              PM--------------|              PM---|
|-----------------------------------------------------------------------------------|
|-----------------------------------------------------------------------------------|
|--3------------------------------3------------------------------3------------------|
|--3------------------------------3------------------------------3------------------|
|--1--------1----1-----1----1-----1--------1----1-----1----1-----1--------1----1----|
|-----------------------------------------------------------------------------------|


  C5
|-12h13h15p13p12------12h13h==15p13p12----12h13h==15p13p12------12h13h15p13p12------|
|------------------13------------------13--------------------13------------------13-|
|-----------------------------------------------------------------------------------|
|-----------------------------------------------------------------------------------|
|-----------------------------------------------------------------------------------|
|-----------------------------------------------------------------------------------|
|
|           PM--------------|              PM--------------|              PM---|
|-----------------------------------------------------------------------------------|
|-----------------------------------------------------------------------------------|
|--5------------------------------5------------------------------5------------------|
|--5------------------------------5------------------------------5------------------|
|--3--------3----3-----3----3-----3--------3----3-----3----3-----3--------3----3----|
|-----------------------------------------------------------------------------------|


  D5
|-13h15h17p15p13------13h15h==17p15p13----13h15h==17p15p13------13h15h17p15p13------|
|------------------15------------------15--------------------15------------------15-|
|-----------------------------------------------------------------------------------|
|-----------------------------------------------------------------------------------|
|-----------------------------------------------------------------------------------|
|-----------------------------------------------------------------------------------|
|
|           PM--------------|              PM--------------|              PM---|
|-----------------------------------------------------------------------------------|
|-----------------------------------------------------------------------------------|
|--7------------------------------7------------------------------7------------------|
|--7------------------------------7------------------------------7------------------|
|--5--------5----5-----5----5-----5--------5----5-----5----5-----5--------5----5----|
|-----------------------------------------------------------------------------------|


  D5
|-20b22---------20b22-20b22---20b22-----20b22.5-----|
|---------------------------------------------------|
|---------------------------------------------------|
|---------------------------------------------------|
|---------------------------------------------------|
|---------------------------------------------------|
|
|       PM----|        PM-----------|           PM|
|---------------------------------------------------|
|---------------------------------------------------|
|--7-------------7--------------------7-------------|
|--7-------------7--------------------7-------------|
|--5----5-5-5-5--5-----5----5--5----5-5---------5-5-|
|---------------------------------------------------|


  Bb5
|-20b22.5---20b22.5-----20b22.5-20b22r======(20)\-----|
|-----------------------------------------------------|
|-----------------------------------------------------|
|-----------------------------------------------------|
|-----------------------------------------------------|
|-----------------------------------------------------|
|
|         PM----------|          PM-------|       PM|
|-----------------------------------------------------|
|-----------------------------------------------------|
|--3---------------------3--------------------3-------|
|--3---------------------3--------------------3-------|
|--1------1--1------1-1--1-------1----1-1-1---1---1-1-|
|-----------------------------------------------------|


  C5
|-----------------------------------------------|
|-17-18-17-18---20-17-18---17-20\---------------|
|-----------------------------------------------|
|-----------------------------------------------|
|-----------------------------------------------|
|-----------------------------------------------|
|
|        PM--------------|        PM----|   PM|
|-----------------------------------------------|
|-----------------------------------------------|
|--5---------------------------5----------5-----|
|--5---------------------------5----------5-----|
|--3-----3----3-----3----3-----3--3-3-3-3-3-3-3-|
|-----------------------------------------------|


  D5
|-----------------------------------------------------------|
|-5h6h8p6p5h==6h8p6p==5h6h8p6p5h6h==8p6p5h==6h8p6p5h6h8p==6-|
|-----------------------------------------------------------|
|-----------------------------------------------------------|
|-----------------------------------------------------------|
|-----------------------------------------------------------|
|
|       PM----------|         PM----------|         PM--|
|-----------------------------------------------------------|
|-----------------------------------------------------------|
|-7---------------------7---------------------7-------------|
|-7---------------------7---------------------7-------------|
|-5-----5---5---5---5---5-----5---5---5---5---5-----5---5---|
|-----------------------------------------------------------|


  D5
|-----------------------------------------------------------|
|-5h6h8p6p5h==6h8p6p==5h6h8p6p5h6h==8p6p5h==6h8p6p5h6h8p==6-|
|-----------------------------------------------------------|
|-----------------------------------------------------------|
|-----------------------------------------------------------|
|-----------------------------------------------------------|
|
|       PM----------|         PM----------|         PM--|
|-----------------------------------------------------------|
|-----------------------------------------------------------|
|-7---------------------7---------------------7-------------|
|-7---------------------7---------------------7-------------|
|-5-----5---5---5---5---5-----5---5---5---5---5-----5---5---|
|-----------------------------------------------------------|


  D5
|-----------------------------------------------------------|
|-5h6h8p6p5h==6h8p6p==5h6h8p6p5h6h==8p6p5h==6h8p6p5h6h8p==6-|
|-----------------------------------------------------------|
|-----------------------------------------------------------|
|-----------------------------------------------------------|
|-----------------------------------------------------------|
|
|       PM----------|         PM----------|         PM--|
|-----------------------------------------------------------|
|-----------------------------------------------------------|
|-7---------------------7---------------------7-------------|
|-7---------------------7---------------------7-------------|
|-5-----5---5---5---5---5-----5---5---5---5---5-----5---5---|
|-----------------------------------------------------------|


  Bb5
|-----------------------------------------------------------|
|-5h6h8p6p5h==6h8p6p==5h6h8p6p5h6h==8p6p5h==6h8p6p5h6h8p==6-|
|-----------------------------------------------------------|
|-----------------------------------------------------------|
|-----------------------------------------------------------|
|-----------------------------------------------------------|
|
|       PM----------|         PM----------|         PM--|
|-----------------------------------------------------------|
|-----------------------------------------------------------|
|-3---------------------3---------------------3-------------|
|-3---------------------3---------------------3-------------|
|-1-----1---1---1---1---1-----1---1---1---1---1-----1---1---|
|-----------------------------------------------------------|


  C5
|-----------------------------------------------------------|
|-5h6h8p6p5h==6h8p6p==5h6h8p6p5h6h==8p6p5h==6h8p6p5h6h8p==6-|
|-----------------------------------------------------------|
|-----------------------------------------------------------|
|-----------------------------------------------------------|
|-----------------------------------------------------------|
|
|       PM----------|         PM----------|         PM--|
|-----------------------------------------------------------|
|-----------------------------------------------------------|
|-5---------------------5---------------------5-------------|
|-5---------------------5---------------------5-------------|
|-3-----3---3---3---3---3-----3---3---3---3---3-----3---3---|
|-----------------------------------------------------------|


  D5
|---------------------------------------------|
|-5h6h8p6p5h==6-8-6---5-5-6-5---5-------------|
|-----------------------------7---7-5---5-7---|
|-------------------------------------7-------|
|---------------------------------------------|
|---------------------------------------------|
|
|       PM----------|         PM----|     PM|
|---------------------------------------------|
|---------------------------------------------|
|-7---------------------7-------------7-------|
|-7---------------------7-------------7-------|
|-5-----5---5---5---5---5-----5-5-5-5-5---5-5-|
|---------------------------------------------|


  D5                             Bb5
|------------------------------|---------------------------------|
|---------------8---x-x-10-x-x-|-11-x-x-13---x-x-15---x-x-17-x-x-|
|-7-x-x-9---x-x----------------|---------------------------------|
|------------------------------|---------------------------------|
|------------------------------|---------------------------------|
|------------------------------|---------------------------------|
|
|   PM----|     PM----|    PM|      PM-----|      PM----|    PM|
|------------------------------|---------------------------------|
|------------------------------|---------------------------------|
|-7---------7------------7-----|--3----------3-------------3-----|
|-7---------7------------7-----|--3----------3-------------3-----|
|-5-5-5-5-5-5---5-5-5-5--5-5-5-|--1-1-1--1-1-1----1-1-1-1--1-1-1-|
|------------------------------|---------------------------------|


  C5
|---------------------------------------|
|-18-x-x-18p17p15--17p15-13---13b15-----|
|---------------------------------------|
|---------------------------------------|
|---------------------------------------|
|---------------------------------------|
|
|    PM-----|       PM------|       PM|
|---------------------------------------|
|---------------------------------------|
|--5------------5--------------5--------|
|--5------------5--------------5--------|
|--3-3-3--3--3--3---3--3--3-3--3----3-3-|
|---------------------------------------|


  D5
|----------------------------------------|
|-(13)-----10h11p10-8h10p8----8----------|
|--------------------------10---10-9-7-9-|
|----------------------------------------|
|----------------------------------------|
|----------------------------------------|
|
|      PM-----|        PM-----|      PM|
|----------------------------------------|
|----------------------------------------|
|---7-------------7--------------7-------|
|---7-------------7--------------7-------|
|---5--5-5--5--5--5----5-5--5-5--5---5-5-|
|----------------------------------------|


  Q=115
  D5                    Bb5            C5
              ~                 ~
|---------------------|--------------|-12b13---(12)---------------------------|
|-10------------------|--------------|--------------11-10--11--10h11p10-------|
|--9b10--(9)--7---7h9-|-9b10----7----|----------------------------------10-12-|
|---------------------|--------------|----------------------------------------|
|---------------------|--------------|----------------------------------------|
|---------------------|--------------|----------------------------------------|
|
|---------------------|--------------|----------------------------------------|
|---------------------|--------------|----------------------------------------|
|--7------------------|-3------------|--5-------------------------------------|
|--7------------------|-3------------|--5-------------------------------------|
|--5------------------|-1------------|--3-------------------------------------|
|---------------------|--------------|----------------------------------------|


  D5
|--------------------------------------------|
|-11-10--------------------------------------|
|-------10-10-12-10S9-10-9--10--9-10-9-------|
|--------------------------------------12-10-|
|--------------------------------------------|
|--------------------------------------------|
|
|--------------------------------------------|
|--------------------------------------------|
|--7-----------------------------------------|
|--7-----------------------------------------|
|--5-----------------------------------------|
|--------------------------------------------|


                     Bb5
         ~~
|------------------|----------------|
|------------------|-11-10----------|
|------------------|-------10-10----|
|-12----10--(10)\--|----------------|
|------------------|----------------|
|------------------|----------------|
|
|------------------|----------------|
|------------------|----------------|
|--7---------------|--3-------------|
|--7---------------|--3-------------|
|--5---------------|--1-------------|
|------------------|----------------|


  C5                     D5
|----------------------|-12b13----(12)----|
|----------------------|------------------|
|-9h10p9-7----7--------|------------------|
|----------10---10-8-7-|------------------|
|----------------------|------------------|
|----------------------|------------------|
|
|----------------------|------------------|
|----------------------|------------------|
|-5--------------------|--7---------------|
|-5--------------------|--7---------------|
|-3--------------------|--5---------------|
|----------------------|------------------|


 Verse
  D5         Bb5        C5         D5
  Gtr III
|----------|----------|----------|----------|------|
|----------|----------|----------|----------|------|
|-7--------|-3--------|-5--------|-7--------|-7----|
|-7--------|-3--------|-5--------|-7--------|-7----|
|-5--------|-1--------|-3--------|-5--------|-5----|
|----------|----------|----------|----------|------|


  Bb5        C5         D5
|----------|----------|----------|------|
|----------|----------|----------|------|
|-3--------|-5--------|-7--------|-7----|
|-3--------|-5--------|-7--------|-7----|
|-1--------|-3--------|-5--------|-5----|
|----------|----------|----------|------|


|------------|------------|--------------|
|------------|------------|----------x-x-|
|-(7)--------|-(7)--------|-(7)------x-x-|
|-(7)--------|-(7)--------|-(7)----------|
|-(5)--------|-(5)--------|-(5)----------|
|------------|------------|--------------|


  Am/D         Bbadd9/D Csus4
                              ~
|------------|--------------|----------|-----|
|-----1------|-----1--------|----------|-----|
|---2--------|---3--------0-|----------|-----|
|-0----------|-0--------3---|----------|-----|
|------------|--------------|-3--------|-----|
|------------|--------------|----------|-----|


    Q=140
    D5        Bb/D
      PM----|   PM----|   PM------|   PM----|   PM|   PM|
                                                           7x
||----------------------------|----------------------------||
||o---------------------------|---------------------------o||
||--7---------7---------7-----|-----7---------7-----7------||
||--7---------8---------8-----|-----8---------8-----8------||
||o-5-5-5-5-5-5-5-5-5-5-5-5-5-|-5-5-5-5-5-5-5-5-5-5-5-5-5-o||
||----------------------------|----------------------------||


  D5        F/Bb
    PM----|
|--------------------|--------*|
|--------------------|--------*|
|-7---------2-(2)----|-(2)----*|
|-7---------3-(3)----|-(3)----*|
|-5-5-5-5-5-1-(1)----|-(1)----*|
|--------------------|--------*|





Comments


Popular Dio tabs & chords
Like The Beat Of A Heart Bass Tabs
All The Sailed Away Intro Tabs
Dont Talk To Strangers Intro Tabs
Heaven And Hell Tabs
Holy Diver (Solo) Tabs
Invisible Tabs
Metal Will Never Die Tabs
Rainbow In The Dark 3 Tabs
Rock And Roll Tabs
Stand Up And Shout 1 Tabs


Song lyrics



↑ Back to top | Tablatures and chords are parodies/interpretations of the original songs. You may use it for private study, scholarship, research or language learning purposes only
© 2014 AZChords.com Contact us | Privacy policy | DMCA | Add/correct tabs | Request tabs | Top 50 tabs