» » »

Dio, Rock And Roll Tabs (ver.1)

Artists:  A B C D E F G H I J K L M N O P Q R S T U V W X Y Z # 

Rock And Roll Tabs (ver.1)

Dio Tabs
Rating:
0/5 (0 votes)
Rock And Roll lessons Tabs too difficult? Try these video lessons and learn fast
                
Tuning:EADGBe

    Intro
e|---2--------------------3--------------------0---------------------------|
B|------0-----------0--------0-----------0--------0-----------0------------|
G|---------0-----0-----0--------0-----0-----0--0-----0-----0-----0--2------|
D|------------4--------------------4--------------------4------------------|
A|------------------------3------------------------------------------------|
E|---0---------------------------------------------------------------------|


e|-----0--0----0--------------------3--------------------0-----------------|
B|-----0--0-------0-----------0--------0-----------0--------0-----------0--|
G|---2/4--0----0-----0-----0-----0--------0-----0-----0--0-----0-----0-----|
D|--------2-------------4--------------------4--------------------4--------|
A|--------3-------------------------3--------------------------------------|
E|-------------------------------------------------------------------------|
                                

e|----------------------------|--------------------------------------------|
B|------------1---------------|--------------------------------------------|
G|---------0--------------4---|--------------------------------------------|
D|------2-----------1--4------|-8-8-8-8-8-8-8-8-8-8-8--9-9-9-9-9-9-9-9-9-9-|
A|---3-----------2------------|-7-7-7-7-7-7-7-7-7-7-7--7-7-7-7-7-7-7-7-7-7-|
E|----------------------------|-0-0-0-0-0-0-0-0-0-0-0--0-0-0-0-0-0-0-0-0-0-|
                                * * * * * * * * * * *  * * * * * * * * * *
                                             x4
e|---------------------------------------------|---------------------------|
B|---------------------------------------------|---------------------------|
G|---------------------------------------------|---------------------------|
D|---8-8-8-8-8-8-8-8-8-8--9-9-9-9-9-9-9-9-9-10-|-9---5---7---2-------------|
A|---7-7-7-7-7-7-7-7-7-7--7-7-7-7-7-7-7-7-7-8--|-7---5---7---2-------------|
E|---0-0-0-0-0-0-0-0-0-0--0-0-0-0-0-0-0-0-0----|-0---3---5---0-------------|
     * * * * * * * * * *  * * * * * * * * *                  Let it ring.
                                   x8
e|------|----------------------------|-------------------------------------|
B|------|----------------------------|-------------------------------------|
G|------|----------------------------|-------------------------------------|
D|---7\-|-2-2--2-2--2-2--2-2-3-3-3-2-|------2-2--2-2--2-2-5-5-4-4-9--------|
A|---7\-|-2-2--2-2--2-2--2-2-3-3-3-2-|------2-2--2-2--2-2-5-5-4-4-7--------|
E|------|-0-0--0-0--0-0--0-0-1-1-1-0-|------0-0--0-0--0-0-3-3-2-2-0--------|
          * *  * *  * * (* * * * * *)        
     Chorus
e|-------------------------------------------------------------------------|
B|-------------------------------------------------------------------------|
G|-------------------------------------------------------------------------|
D|---9-11-7---12-14-9---7-11-7-9-9------------------9-11-7---12-14-9-------|
A|---7-9--5---10-12-7---5-9--5-7-7------------------7-9--5---10-12-7-------|
E|---0--------------0----------0-0---0-2-3-5--3-2---0--------------0-------|


e|--------------------------|
B|--------------------------|
G|--------------------------|
D|---7-11-7-9-9---12-14-9---|
A|---5-9--5-7-7---10-12-7---|
E|----------0-0---------0---|

Theres one more fill but I'm too lazy to figure it out.

| /  slide up
| \  slide down
| h  hammer-on
| p  pull-off
| ~  vibrato
| +  harmonic
| *  Mute note
            

comments powered by Disqus
↑ Back to top | Dio Tabs for Rock And Roll. Lyrics for acoustic guitar and electric guitar. Tablatures and chords are parodies/interpretations of the original songs. You may use it for private study, scholarship, research or language learning purposes only