» » »

Dio, Rainbow In The Dark Bass tabs (ver.1)

Artists:  A B C D E F G H I J K L M N O P Q R S T U V W X Y Z # 

Rainbow In The Dark Bass tabs (ver.1)

Dio Tabs
 Rating:
4/5 (4 votes)
Rainbow In The Dark lessons Tabs too difficult? Try these video lessons and learn fast
                
standard: G D A E

verse
|------------------------------------------------------------------------------|
|------------------------------------------------------------------------------|
|--------------------------3-2-----------------------3-2-----------------------|
|3*------5--0-1-0-1-3-3--3-----5-3-5--0-1-0-1-3-3--3-----5-3-5--0-1-0-1-3------|

*This note (G) is only played in the begginig of the song.

The verse part goes on and on...

pre-chorus
|------------------------------------------------------------------------------|
|------------------------------------------------------------------------------|
|3-2---------------------------------------------------------------------------|
|----5-3-0------1-------0-------1----------------------------------------------|

chorus
|------------------------------------------------------------------------------|
|------------------------------------------------------------------------------|
|------------------------------------------------------------------------------|
|0-------0-------0-------0-------0-------0-------------------------------------|

Guitar solo: play verse, pre-chorus and chorus...

End
            
Submit corrections

comments powered by Disqus
↑ Back to top | Dio Bass for Rainbow In The Dark. Lyrics for acoustic guitar and electric guitar. Tablatures and chords are parodies/interpretations of the original songs. You may use it for private study, scholarship, research or language learning purposes only