>
 >
 >
Push

Push Guitar Tabs

Dio - Push chords, tabs, tablatures, lyrics

Guitar lessons | Add/correct | Request | Top 50 tabs Artists:  A B C D E F G H I J K L M N O P Q R S T U V W X Y Z 0-9

Push Guitar Tabs – Dio

CD, Sheet music, Poster

Do you like Push? Share with your friends now
Bass TabsBass Tabs v2Tabs
Artist          : Dio
Bass Performance: Push
first version was very crap.
 It´s a very cool song. I hope you enjoy.

Strings: B ,E ,A ,D ,G ,C (i think. Or try Dropped D Tuning)
Symbols explanations:
  H: hammer on  P: pull off
  \: slide up   /: slide down
  --x~~x~~x: triplets
  pm (.): palm mute
  ph: pinch harmonic 
  ^ : bend
  (): suggested note

Intro:
 Volume swells (enters and then fades)
|-----------------------------|
|-----------------------------|
|-----------------------------|
|-8-8-8-8-8-8-8-8-8-8-8-8-8-8-|
|-8-8-8-8-8-8-8-8-8-8-8-8-8-8-|
|-6-6-6-6-6-6-6-6-6-6-6-6-6-6-|
  . . . . . . . . . . . . . . pm


|------------------------------------|
|------------------------------------|
|------------------------------------|
|-(6)-7-5--10--8-6-8--10--8----------|
|-(4)-5-3---8--6-4-6---8--6--3-4-5---|
|------------------------------------|


|------------------------------------|
|------------------------------------|
|----------------------------12^-----|
|--7-5--10--8-6-4~--10-------12^--6--|
|--5-3---8--6-4-2~---8------------4--|
|-----------------------0-00----0----|


|-----------------------------------|
|-----------------------------------|
|-----------------------------------|
|--7-5--10--8-6-11~-----------------| 
|--5-3---8--6-4--9~-8--5-7-8--8-7-4-|
|-------------------------- --------|
                           ph

|-------------------------------|
|-------------------------------|
|-------------------------------|
|-----7-5-10--8-6-8-------------|
|-(5)-5-3--8--6-4-6-------------|
|-------------------------------| end intro

Verse riff:

You´ve riding on a carrousel.. 
|-------------------------------|
|-------------------------------|
|-------------------------------|
|-2-2-2-2-2-2-2-2-2-2-2-2-2-2---|
|-2-2-2-2-2-2-2-2-2-2-2-2-2-2---|
|-0-0-0-0-0-0-0-0-0-0-0-0-0-0---|

(with flanger)
So you know the feeling as the ring slips through your fingers
|----------------------------------------------------------|
|----------------------------------------------------------|
|----------------------------------------------------------|
|-7---(5)---------------------------------2-2-2-2----------|
|-7-(5)-(5)~~-----------------------------2-2-2-2----------|
|-5---------------------------------------0-0-0-0----------|

                          let ring
|-------------------------4---------------------------------|
|-------------------------4---------------------------------|
|-------------------------5---------------------------------|
|-5-----10^---5-----10^---6---------------------------------|
|-5-----10^---5-----10^---6---------------------------------|
|-3-5-5--8-5--3-5-5--8-5--4---------------------------------|

Sometimes you justify it
|-------------------------------|
|-------------------------------|
|-------------------------------|
|-2-2-2-2-2-2-2-2-2-2-2-2-2-2---|
|-2-2-2-2-2-2-2-2-2-2-2-2-2-2---|
|-0-0-0-0-0-0-0-0-0-0-0-0-0-0---|

but there´s a sword and you´re bleeding once again
|----------------------------------------------------------|
|----------------------------------------------------------|
|----------------------------------------------------------|
|-7---(5)---------------------------------2-2-2-2----------|
|-7-(5)-(5)~~-----------------------------2-2-2-2----------|
|-5---------------------------------------0-0-0-0----------|

                          Before you´re in the corner
|----------------------------------------------------------|
|----------------------------------------------------------|
|------------------------8---------------------------------|
|-5-----10^---5-----10^--9---------------------------------|
|-5-----10^---5-----10^--9-------6-8-9^-8-6----------------|
|-3-5-5--8-5--3-5-5--8---7---------------------------------|

   can´t crawl away
|---------------------------------|
|---------------------------------|
|-8-------------------------------|
|-9-------------------------------|
|-9-----6-8-9^--------------------|
|-7-------------------------------|

   Here´s  a  way  to  save you                     you´ve gotta
|----------------------------------------------------------|
|----------------------------------------------------------|
|-7--------------------7-----------------------------------|
|-8--------------------8-----------------------------------|
|-8---6h8--9-----------8---6h8-10~~------------------------|
|-6--------------------6-----------------------------------|

Chorus:
  
  push                     get out of my way we´ll
|------------------------------------|
|------------------------------------|
|------------------------------------|
|-(6)-7-5--10--8-6-8--10~-8----------|
|-(4)-5-3---8--6-4-6---8~-6--3-4-5---|
|------------------------------------|

  push                    you can turn the wheel
|---------------------------------------|
|---------------------------------------|
|-------------------------------12^-----|
|-(6)-7-5--10--8-6-4~--10-------12^--6--|
|-(4)-5-3---8--6-4-2~---8------------4--|
|--------------------------0-00----0----|

  push                         one more
|------------------------------------|
|------------------------------------|
|------------------------------------|
|---7-5--10--8-6-11~-----------------| 
|---5-3---8--6-4--9~-8--5-7-8--8-9-10-|
|------------------------------------|
                            
   push
|-------------------------------|
|-------------------------------|
|-------------------------------|
|-----7-5-10--8-6---------------|
|-(5)-5-3--8--6-4--8^-8^-8^-6-4-|
|----------------------------- -|
                              ph
 
     You´re the master of the broken hearth
|-----------------------------------------------------------|
|-----------------------------------------------------------|
|--5~-------------------------------------------------------|
|--6~-------------------------2-2-2-2-2-2-2----|
|--6~-------------------------2-2-2-2-2-2-2----|
|--4~-------------------------0-0-0-0-0-0-0----|

  So you know the feeling  as your soul starts going under
|---------------------------------------------------------------|
|---------------------------------------------------------------|
|---------------------------------------------------------------|
|-7---(5)--------------------------------------2-2-2-2----------|
|-7-(5)-(5)~~----------------------------------2-2-2-2----------|
|-5--------------------------------------------0-0-0-0----------|

                          sometimes you rectify it
|-------------------------4---------------------------------|
|-------------------------4---------------------------------|
|-------------------------5---------------------------------|
|-5-----10^---5-----10^---6-------------2-2-2-2-------------|
|-5-----10^---5-----10^---6-------------2-2-2-2-------------|
|-3-5-5--8-5--3-5-5--8-5--4-------------0-0-0-0-------------|

  then  out  of  the  blue  the  hammmer  falls  again
|-----------------------------------------------------------|
|-----------------------------------------------------------|
|-----------------------------------------------------------|
|-7---(5)----------------------------------2-2-2-2----------|
|-7-(5)-(5)~~------------------------------2-2-2-2----------|
|-5----------------------------------------0-0-0-0----------|

                          Before you´re in the corner
|----------------------------------------------------------|
|----------------------------------------------------------|
|------------------------8---------------------------------|
|-5-----10^---5-----10^--9---------------------------------|
|-5-----10^---5-----10^--9-------6-8-9^-8-6----------------|
|-3-5-5--8-5--3-5-5--8---7---------------------------------|


can´t sail away
|---------------------------------|
|---------------------------------|
|-8-------------------------------|
|-9-------------------------------|
|-9-----6-8-9^--------------------|
|-7-------------------------------|

   Here´s  a  way  to  save you          you´ve gotta
|----------------------------------------------------------|
|----------------------------------------------------------|
|-7--------------------7-----------------------------------|
|-8--------------------8-----------------------------------|
|-8---6h8--9-----------8---6h8-10~~------------------------|
|-6--------------------6-----------------------------------|

Chorus:
  
  push     bring the body down   ooohh
|------------------------------------|
|------------------------------------|
|------------------------------------|
|-(6)-7-5--10--8-6-8--10~-8----------|
|-(4)-5-3---8--6-4-6---8~-6--3-4-5---|
|------------------------------------|

  push                    out of my way we´ll 
|---------------------------------------|
|---------------------------------------|
|-------------------------------12^-----|
|-(6)-7-5--10--8-6-4~--10-------12^--6--|
|-(4)-5-3---8--6-4-2~---8------------4--|
|--------------------------0-00----0----|

  push                         you´d better
|-------------------------------------|
|-------------------------------------|
|-------------------------------------|
|---7-5--10--8-6-11~------------------| 
|---5-3---8--6-4--9~-8--5-7-8--8-9-10-|
|-------------------------------------|
                            
   push
|-------------------------------|
|-------------------------------|
|-------------------------------|
|-----7-5-10--8-6---------------|
|-(5)-5-3--8--6-4--8^-8^-8^-6-4-|
|----------------------------- -|
                              ph

SOLO:           "these are 12 11 and 10"
|------------------------------------------------------------------|
|------------------------------------------------------------------|
|-------------------------------------------------------------4^---|
|--------------------------------------3^-2^--7^-5^^^--------------|
|------5---4---121110---------------4^----------------765----------|
|--3-3---3---3--------121110-987987-----------------------765------|


|----------------------------------------18^-12-11-12---|
|-18-16~-14-12-12------------12h11h10-------------------|
|------------------17-16-15-----------10----------------|
|-------------------------------------------------------|
|-------------------------------------------------------|
|-------------------------------------------------------|

|-------------------------------------|
|-9h11-11-14--------------------------|
|------------14-12-14~~---------------|
|-------------------------------------|
|-------------------------------------|
|-------------------------------------|

|-------------------------------------------|
|-------------------------------------------|
|-----------------------------------9-7-8^--|
|----------------------9-11-11h10h9---------|
|-----9-11-9-14h13h12-----------------------|
|-6-8---------------------------------------|

|-------------------------------------------14---------------------------------------------|
|-------------------------------------12-------15-14-13------------------------------------|
|-10---9---8~--9h11h9--------------11----11-------------15-14-13----------15-14-13-14-12---|
|----9---9------------9h10h11h10h9-------------------------------15-14-13------------------|
|------------------------------------------------------------------------------------------|
|------------------------------------------------------------------------------------------|

 								    you´ve gotta 
|-12h14^ ^ ^ ^ ^-------------------------------------------------17^--|
|----------------12h14--15-12-11--------------------------------------|
|--------------------------------15-12-11^----------------------------|
|------------------------------------------15-15h14h13-15h14h13-------|
|---------------------------------------------------------------------|
|---------------------------------------------------------------------|

  push     hands against the wall   and
|------------------------------------|
|------------------------------------|
|------------------------------------|
|-(6)-7-5--10--8-6-8--10~-8----------|
|-(4)-5-3---8--6-4-6---8~-6--3-4-5---|
|------------------------------------|

  push                    out of my way we´ll 
|---------------------------------------|
|---------------------------------------|
|-------------------------------12^-----|
|-(6)-7-5--10--8-6-4~--10-------12^--6--|
|-(4)-5-3---8--6-4-2~---8------------4--|
|--------------------------0-00----0----|

   push                 you can turn the wheel
|-------------------------------------|
|-------------------------------------|
|-------------------------------------|
|---7-5--10--8-6-11~------------------| 
|---5-3---8--6-4--9~-8--5-7-8--8-7-4--|
|-------------------------------------|
                            
                         go on and 
|------------------------------------|
|------------------------------------|
|------------------------------------|
|-----7-5-10--8-6--------------5-4-3-|
|-(5)-5-3--8--6-4--------5-4-3-------|
|------------------5-4-3-------------|
  push                              
|------------------------------------|
|------------------------------------|
|------------------------------------|
|-(6)-7-5--10--8-6-8--10~-8----------|
|-(4)-5-3---8--6-4-6---8~-6--3-4-5---|
|------------------------------------|

  push                    
|---------------------------------------|
|---------------------------------------|
|-------------------------------12^-----|
|-(6)-7-5--10--8-6-4~--10-------12^--6--|
|-(4)-5-3---8--6-4-2~---8------------4--|
|--------------------------0-00----0----|

   push                 
|-------------------------------------|
|-------------------------------------|
|-------------------------------------|
|---7-5--10--8-6-11~------------------| 
|---5-3---8--6-4--9~-8--5-7-8--8-7-4--|
|-------------------------------------|


Repeat till the song fades out.
_________________________________________________

That´s the whole song. I didn´t know the outro solo but this will help a lot. 
I hope you enjoy!!!!!

Bye.


Rodrigo "Guitarrista Etiqueta Negra" Espichán





Comments


Popular Dio tabs & chords
Don't Talk To Strangers Bass Tabs
Holy Diver 2 Bass Tabs
Push 2 Bass Tabs
The Last In Line 3 Bass Tabs
We Rock 2 Bass Tabs
Along Comes A Spider (Intro Ver 2) Tabs
Holy Diver 1 Tabs
Holy Diver 3 Tabs
I Could Have Been A Dreamer Tabs
Straight Through The Heart Tabs


Song lyrics



↑ Back to top | Tablatures and chords are parodies/interpretations of the original songs. You may use it for private study, scholarship, research or language learning purposes only
© 2014 AZChords.com Contact us | Privacy policy | DMCA | Add/correct tabs | Request tabs | Top 50 tabs