» » »

Killing The Dragon Tabs (ver.1)

Artists:  A B C D E F G H I J K L M N O P Q R S T U V W X Y Z # 

Killing The Dragon Tabs (ver.1)

Dio
Rating:
3/5 (1 vote)

Hard to play? Try these video lessons and learn fast.
                ----------------------------------------------------------------------------
----------------------------------------------------------------------------

Tuning:EADGBe

e|-------------------------------------------------------------------------|
B|-------------------------------------------------------------------------|
G|-------------------------------------------------------------------------|
D|---5-5-5-5-5-5-5-5-5-5-5-5-5-5-5-5-5-5-5----------------5-5-5-5-5-5-5-5--|
A|---5-5-5-5-5-5-5-5-5-5-5-5-5-5-5-5-5-5-5--1-0-1-3-1-0---5-5-5-5-5-5-5-5--|
E|---3-3-3-3-3-3-3-3-3-3-3-3-3-3-3-3-3-3-3--------------1-3-3-3-3-3-3-3-3--|
     * * * * * * * * * * * * * * * * * * *                * * * * * * * *

e|-------------------------------------------------------------------------|
B|-------------------------------------------------------------------------|
G|-------------------------------------------------------------------------|
D|---5-5-5-5-5------------5-5-5-5-5-5-5-5-5-5-5-5-5---------------5-5-5-5--|
A|---5-5-5-5-5-5-3-1-b7---5-5-5-5-5-5-5-5-5-5-5-5-5-1-0-1-3-1-0-1-5-5-5-5--|
E|---3-3-3-3-3----------1-3-3-3-3-3-3-3-3-3-3-3-3-3---------------3-3-3-3--|
     * * * * *            * * * * * * * * * * * * *               * * * * 
e|-------------------------------------------------------------------------|
B|-------------------------------------------------------------------------|
G|-------------------------------------------------------------------------|
D|---5-5-5-5-5-5-5-5-5------------5-5-5-5-5-5-5-5-5-5-5-5-5-5-5-5-5-5-5----|
A|---5-5-5-5-5-5-5-5-5-5-3-1-b7---5-5-5-5-5-5-5-5-5-5-5-5-5-5-5-5-5-5-5----|
E|---3-3-3-3-3-3-3-3-3----------1-3-3-3-3-3-3-3-3-3-3-3-3-3-3-3-3-3-3-3----|
     * * * * * * * * *            * * * * * * * * * * * * * * * * * * *  
e|-------------------------------------------------------------------------|
B|-----------------8-------------------------------------------------------|
G|-----------------7------8------8-----------------------------------------|
D|-----------------5------8------8------5--------5-5-5-5-5-5-5-5-5-5-5-5---|
A|---1-0-1-3-1-0----------6------6------5--------5-5-5-5-5-5-5-5-5-5-5-5---|
E|---------------1----------------------3--1-1---3-3-3-3-3-3-3-3-3-3-3-3---|
                                                 * * * * * * * * * * * * 
e|-------------------------------------------------------------------------|
B|-------------------------------8-----------------------------------------|
G|-------------------------------7------8------8------6------6------6------|
D|---5-5-5-5-5-5-5---------------5------8------8------6------6------6------|
A|---5-5-5-5-5-5-5-1-0-1-3-1-0----------6------6------4------4------4------|
E|---3-3-3-3-3-3-3-------------1-------------------------------------------|
     * * * * * * * 
e|------------------------------------------------|
B|------------------------------------------------|
G|---7--------------7--------------3--------------|
D|---7----7----5----7----7----5----3----------6---|
A|---5----7----5----5----7----5----1----------6---|
E|--------5----3---------5----3---------------4---|

  This is the very beginning of the solo.
e|---------------14(15)b~+--------------13b(15)---|
B|------------------------------------14----------|
G|-------5~---12-------5h6p5\-------16------------|
D|---5------------------------4---16--------------|
A|-------------------------------rake-------------|
E|------------------------------------------------|

| \  Slide Down
| h  Hammer-on
| p  Pull-off
| ~  Vibrato
| +  Pick Harmonic
| *  Mute Note
| b  Bend Note
============================================================================
            
Hard to play? Try these video lessons and learn fast. | Correct




comments powered by Disqus
↑ Back to top | Tablatures and chords are parodies/interpretations of the original songs. You may use it for private study, scholarship, research or language learning purposes only