» » »

Invisible Tabs (ver.1)

Artists:  A B C D E F G H I J K L M N O P Q R S T U V W X Y Z # 

Invisible Tabs (ver.1)

Dio
Rating:
5/5 (2 votes)

Hard to play? Try these video lessons and learn fast.
                Intro(go between these two)
e|-----3-----3---3-----3-----3---3-|-----3-----3---3-----3-----3---3-|
B|---3-----3---------3-----3-------|---3-----3---------3-----3-------|
G|-0-----0-----0-------------------|-------0-----0-------------------|
D|-----------------4-----0-----4---|-----------------4-----0-----4---|
A|---------------------------------|-3-------------------------------|
E|---------------------------------|---------------------------------|

Pre-Verse          n.h.--|                   |1             |2
e|---------0-------------5-|-verse as intro-|-------0------|-----3-----3-------|
B|-------0---0---------5---|--except-with---|-----0----0---|---3-----3-----3---|
G|-----0-------0---5-------|-------ends-----|---0--------0-|-0-----0-----0-----|
D|---0-----------0---------|----------------|--------------|-------------------|
A|-3-----------------------|----------------|-3------------|-----------------3-|
E|-------------------------|----------------|--------------|-------------------|

Main riff                 |1                       |2
e|-----------------------|--------------------p.h-|------------|
B|-----------------------|------------------------|------------|
G|-----------------------|------------------------|------------|
D|-2-2--x-5----2-2--x-7--|-2-2--x-5---7-x-5-x-----|-2--5-2-0---|
A|-2-2--x-5----2-2--x-7--|-2-2--x-5---7-x-5-x-5---|----------2-|
E|-0-0--x-3----0-0--x-5--|-0-0--x-3---5-x-3-x-----|------------|

Verse            |1,3             |2               |4
e|--------------|----------------|----------------|--------------|
B|--------------|----------------|----------------|--------------|
G|--------------|--------------7-|----------------|--------4--2--|
D|-----5------7-|-----5--7--5--7-|-----5--7--5--4-|-----5--4--2--|
A|-2-2-5--2-2-7-|-2-2-5--7--5--5-|-2-2-5--7--5--4-|-2-2-5--2--0--|
E|-0-0-3--0-0-5-|-0-0-3--5--3----|-0-0-3--5--3--2-|-0-0-3--------|

Chorus                 |1                  |2(1st chorus) |2(2nd Chorus)
e|--------------------|-------------------|--------------|-----------------|
B|--------------------|-------------------|-main riff----|-----------------|
G|o-------------4--2--|-------------2----o|--------------|-2---------------|
D|o------2-5-2--4--2--|-2--5-2-0----2--2-o|--------------|-2-5----5--3-----|
A|-0-2-5--------2--0--|----------2--0--2--|--------------|-0-5----5--3-----|
E|--------------------|----------------0--|--------------|---3----3--1-----|

Into Solo      |1   |2  |3                     
e|-------------|---|---|---|--------------------|--------------------------------|
B|-------------|---|---|---|--------------------|--------------------------------|
G|-------------|---|-7-|-5-|------------------9-|--------------------------------|
D|-------2-5-2-|-2-|-7-|-5-|--------2-5-2-0-2-9-|--------5-2-----5-2-----5-2-----|
A|-0-2-5-------|-2-|-5-|-3-|--0-2-5-----------7-|-0-2-5-2----5-2-----5-2-----5-2-|
E|-------------|-0-|---|---|--------------------|--------------------------------|

Rest of solo rhythm is main riff
repeats itself til end(verse,chorus etc.)
fill occassionally while fading out
e|----------------|
B|----------------|
G|--------7-7-7---|
D|-5-5-5--7-7-7---|
A|-5-5-5--5-5-5---|
E|-3-3-3----------|
            
Hard to play? Try these video lessons and learn fast. | Correct




comments powered by Disqus
↑ Back to top | Tablatures and chords are parodies/interpretations of the original songs. You may use it for private study, scholarship, research or language learning purposes only