» » »

In Dreams Tabs (ver.1)

Artists:  A B C D E F G H I J K L M N O P Q R S T U V W X Y Z # 

In Dreams Tabs (ver.1)

Dio
Rating:
0/5 (0 votes)

Hard to play? Try these video lessons and learn fast.
                (Intro)
I got started, but kept getting stuck at the verse
Here's what sounds right to me...

Artist - Dio
Album - Masters Of The Moon
Song - In Dreams

Tuning - Drop C# (C# G# C# F# A# D#)

Intro (0:00)

D#-------------|
A#-------------|
F#-------------|
C#-3---5---8---|
G#-1---3---6---|
C#-------------|

Riff 1 (0:02) - Play Twice

D#-----------------------------------|
A#-----------------------------------|
F#-----------------------------------|
C#----7-7--5-5-5s7-7-7---------------|
G#----5-5--3-3-3s5-5-5--0-2-3-2-3-2--|
C#-0--------------------0-2-3-2-3-2--|

1st Time |-----------------------------|
D#-------------------------------------|
A#-------------------------------------|
F#-------------------------------------|
C#----7-7--5-5-5s7-7-7-----------------|
G#----5-5--3-3-3s5-5-5--0-2-3-5-3-2~---|
C#-0--------------------0-2-3-5-3-2~---|

2nd Time |--------------------------------------|
D#----------------------------------------------|
A#----------------------------------------------|
F#----------------------------------------------|
C#----7-7--5-5-5s7-7-7--------------------------|
G#----5-5--3-3-3s5-5-5--0-2-3-5-3-2-3-2-1-------|
C#-0--------------------0-2-3-5-3-2-3-2-1---0---|
            
Hard to play? Try these video lessons and learn fast. | Correct




comments powered by Disqus
↑ Back to top | Tablatures and chords are parodies/interpretations of the original songs. You may use it for private study, scholarship, research or language learning purposes only