>
 >
 >
Evil Eyes

Evil Eyes Guitar Tabs

Dio - Evil Eyes chords, tabs, tablatures, lyrics

Guitar lessons | Add/correct | Request | Top 50 tabs Artists:  A B C D E F G H I J K L M N O P Q R S T U V W X Y Z 0-9

Evil Eyes Guitar Tabs – Dio

CD, Sheet music, Poster

Do you like Evil Eyes? Share with your friends now
Tabs
i got this from webguitartabs.com but i put here because its only in pro format

E||---------------------------------|--------------------------|
B||---------------------------------|--------------------------|
G||------------------3h--5---L--3~--|--L------------0--2--3----|
D||--5p-----3h--5----3h--5~--L--3---|--L-5p-3--5----0--2--3----|
A||--5p-----3h--5-------------------|----------5---------------|
E||---------------------------------|--------------------------|


  E   E   Q    E   E   E  E      S S  E   H.             
------------------------------|-------------------------|
------------------------------|-------------------------|
---------------3h--5---L--3---|--L--------8-------------|
--5p--3h--5----3h--5~--L--3~--|--L-5p-3/--8-------------|
--5p--3h--5-------------------|----5p-3/--6~------------|
------------------------------|-------------------------|


  E   E   Q    E   E   E  E      S S  E  Q    E  E  Q     
------------------------------|--------------------------|
------------------------------|--------------------------|
---------------3h--5---L--3~--|--L------------0--2--3----|
--5p--3h--5----3h--5~--L--3---|--L-5p-3--5----0--2--3----|
--5p--3h--5-------------------|----------5---------------|
------------------------------|--------------------------|


  E   E   Q    E   E   E  E     H.           Q     
-----------------------------|--------------------|
-----------------------------|--------------------|
---------------3h--5---L--8--|--L------------7----|
--5p--3h--5----3h--5~--L--8--|--L------------7----|
--5p--3h--5---------------6--|--L------------5----|
-----------------------------|--------------------|


  Rhy. Fig. A:                                                     
  E            E   Q    E   E   E  E      S S  E  Q    Q     Q     
---------------------------------------|--------------------------|
---------------------------------------|--------------------------|
------------------------3h--5---L--3---|--L------------8----10----|
--5p-----------3h--5----3h--5~--L--3~--|--L-5p-3--5----8----10----|
--5p-----------3h--5-------------------|----------5----6-----8----|
---------------------------------------|--------------------------|


  E   E   Q    E   E   E  E      S S  E  Q    E   E  Q      
------------------------------|----------------------------|
------------------------------|----------------------------|
---------------3h--5---L--3---|--L-------------------------|
--5p--3h--5----3h--5~--L--3~--|--L-5p-3--5----1p--0--------|
--5p--3h--5-------------------|----------5-----------3~----|
------------------------------|----------------------------|


  E   E   Q    E   E   E  E      S S  E  Q    Q     Q     
------------------------------|--------------------------|
------------------------------|--------------------------|
---------------3h--5~--L--3~--|--L------------8----10----|
--5p--3h--5----3h--5---L--3---|--L-5p-3--5----8----10----|
--5p--3h--5-------------------|----------5----6-----8----|
------------------------------|--------------------------|


  E   E   Q    E   E   E  E     W                   H.           E  E   
-----------------------------|-------------------|---------------------|
-----------------------------|-------------------|---------------------|
---------------3h--5~--L-----|-------------------|------------------5--|
--5p--3h--5----3h--5---L--5--|--L----------------|--L------------L--5--|
--5p--3h--5---------------5--|--L----------------|--L------------L--3--|
--------------------------3--|--L----------------|--L------------L-----|


  Verse 1:                                                    
                   PM PM PM PM                                
  E        E  Q    E  E  E  E     E  E   E  E  E   E  E  E    
-------------------------------|-----------------------------|
-------------------------------|---------------6p--4---------|
--L-----------5----------------|-----5p--3-----5---5-----5\--|
--L-----------5----------------|-----5p--3---------------5\--|
--L--------3--3----3--3--3--3--|--3---------3---------3------|
-------------------------------|-----------------------------|


       PM PM PM PM PM PM                                 
  Q    E  E  E  E  E  E     E  E  E  S S S S E  E   E    
-------------------------|------------------------------|
-------------------------|-------------------4--4p--3~--|
--3----------------------|-----3--3----------3--3---3~--|
--3----------------------|-----3--3---------------------|
--1----1--1--1--1--1--1--|--1--1--1--x-x-x-x------------|
-------------------------|------------------------------|


                PM PM PM                                                        
  Q    E  E  E  E  E  E     E  E   E  E  E   E  E  E      H         Q    E  E   
-------------------------|-----------------------------|-----------------------|
-------------------------|---------------6p--4---------|-----------------------|
--5-------5--L-----------|-----5p--3-----5---5-----5\--|-----------------------|
--5-------5--L-----------|-----5p--3---------------5\--|------------6----L--5--|
--3----3--3--L--3--3--3--|--3---------3---------3------|------------6----L--5--|
-------------------------|-----------------------------|--4~----------------3--|


                          Verse 2:                    
                                            PM PM PM  
  H        E  E  E  E     Q        E  E  E  E  E  E   
-----------------------|-----------------------------|
-----------------------|-----------------------------|
-----------x--3--x--3--|--5-----------5--L-----------|
--L--------x--3--x--3--|--5-----------5--L-----------|
--L--------x--1--x--1--|--3--------3--3--L--3--3--3--|
--L--------------------|-----------------------------|


                                             PM PM PM  
  E  E   E  E  Q     E  E      Q    E  E  E  E  E  E   
----------------------------|-------------------------|
-----6p--4-----3~-----------|-------------------------|
-----5---5-----3~-------5\--|--3-------3--L-----------|
------------------------5\--|--3-------3--L-----------|
--3---------3--------3------|--1----1--1--L--1--1--1--|
----------------------------|-------------------------|


  E  E   E  E  E   E  E  E      H         H           Q     E  E   H         
-----------------------------|---------------------|------------------------|
-----6p--4-----4p--3---------|---------------------|------------------------|
-----5---5-----3---3-----3\--|---------------------|--7--------7---L--------|
-------------------------3\--|------------6--------|--6~-------6~--L--------|
--1---------1---------1------|------------6--------|------------------------|
-----------------------------|--4~-----------------|--------4---------------|


  W                   E  E  E  E  E  E  E  E     Q    H        E  E   
-------------------|--------------------------|----------------------|
-------------------|--------------------------|----------------------|
-------------------|--------------------------|--5----5--------L--5--|
--5----------------|--L--3--3-----3-----3-----|--5----5--------L--5--|
--5----------------|--L--1--1--5--1--5--1--5--|--3----3--------L--3--|
--3----------------|--L--------3-----3-----3--|----------------------|


  Break:                              Chorus:                          
  E      Q     E  E  Q    E  Q        E       E   Q    E   E   E  E    
-----------------------------------|----------------------------------|
---------4p----3-------------------|----------------------------------|
---------3-----3-------------------|-------------------3h--5---L--3---|
---------------------1----3--3\----|--5p------3h--5----3h--5~--L--3~--|
---------------------1----3--3\----|--5p------3h--5-------------------|
-----------------------------------|----------------------------------|


  S S  E  Q    Q     Q       E   E   Q    E   E   E  E    
--------------------------|------------------------------|
--------------------------|------------------------------|
--L------------8----10----|---------------3h--5~--L--3~--|
--L-5p-3--5----8----10----|--5p--3h--5----3h--5---L--3---|
----------5----6-----8----|--5p--3h--5-------------------|
--------------------------|------------------------------|


  S S  E  Q    E   E  Q        E   E   Q    E   E   E  E    
----------------------------|------------------------------|
----------------------------|------------------------------|
--L-------------------------|---------------3h--5---L--3---|
--L-5p-3--5----1p--0--------|--5p--3h--5----3h--5~--L--3~--|
----------5-----------3~----|--5p--3h--5-------------------|
----------------------------|------------------------------|


  S S  E  Q    Q     Q       E   E   Q    E   E   E  E     H.           E  E   
--------------------------|-----------------------------|---------------------|
--------------------------|-----------------------------|---------------------|
--L------------8----10----|---------------3h--5~--L-----|------------------5--|
--L-5p-3--5----8----10----|--5p--3h--5----3h--5---L--5--|--L------------L--5--|
-------3--5----6-----8----|--5p--3h--5---------------5--|--L------------L--3--|
--------------------------|--------------------------3--|--L------------L-----|


  Verse 3:                                                    
                   PM PM PM PM                                
  E        E  Q    E  E  E  E     E  E   E  E  E   E  E  E    
-------------------------------|-----------------------------|
-------------------------------|---------------6p--4---------|
--L-----------5----------------|-----5p--3-----5---5-----5\--|
--L-----------5----------------|-----5p--3---------------5\--|
--L--------3--3----3--3--3--3--|--3---------3---------3------|
-------------------------------|-----------------------------|


       PM PM PM PM PM PM                                 
  Q    E  E  E  E  E  E     E  E  E  S S S S E  E   E    
-------------------------|------------------------------|
-------------------------|-------------------4--4p--3~--|
--3----------------------|-----3--3----------3--3---3~--|
--3----------------------|-----3--3---------------------|
--1----1--1--1--1--1--1--|--1--1--1--x-x-x-x------------|
-------------------------|------------------------------|


                PM PM PM                                                        
  Q    E  E  E  E  E  E     E  E   E  E  E   E  E  E      H         Q    E  E   
-------------------------|-----------------------------|-----------------------|
-------------------------|---------------6p--4---------|-----------------------|
--5-------5--L-----------|-----5p--3-----5---5-----5\--|-----------------------|
--5-------5--L-----------|-----5p--3---------------5\--|------------6----L--5--|
--3----3--3--L--3--3--3--|--3---------3---------3------|------------6----L--5--|
-------------------------|-----------------------------|--4~----------------3--|


                          Verse 4:                    
                                            PM PM PM  
  H        E  E  E  E     Q        E  E  E  E  E  E   
-----------------------|-----------------------------|
-----------------------|-----------------------------|
-----------x--3--x--3--|--5-----------5--L-----------|
--L--------x--3--x--3--|--5-----------5--L-----------|
--L--------x--1--x--1--|--3--------3--3--L--3--3--3--|
--L--------------------|-----------------------------|


                                             PM PM PM  
  E  E   E  E  Q     E  E      Q    E  E  E  E  E  E   
----------------------------|-------------------------|
-----6p--4-----3~-----------|-------------------------|
-----5---5-----3~-------5\--|--3-------3--L-----------|
------------------------5\--|--3-------3--L-----------|
--3---------3--------3------|--1----1--1--L--1--1--1--|
----------------------------|-------------------------|


  E  E   E  E  E   E  E  E      H         H           Q     E  E   H         
-----------------------------|---------------------|------------------------|
-----6p--4-----4p--3---------|---------------------|------------------------|
-----5---5-----3---3-----3\--|---------------------|--7--------7---L--------|
-------------------------3\--|------------6--------|--6~-------6~--L--------|
--1---------1---------1------|------------6--------|------------------------|
-----------------------------|--4~-----------------|--------4---------------|


  W                   E  E  E  E  E  E  Q       Q    H        E  E   
-------------------|-------------------------|----------------------|
-------------------|-------------------------|----------------------|
-------------------|-------------------------|--5----5--------L--5--|
--5----------------|--L--3--3-----3-----3----|--5----5--------L--5--|
--5----------------|--L--1--1--5--1--5--1----|--3----3--------L--3--|
--3----------------|--L--------3-----3-------|----------------------|


  Break:                              Chorus:                          
  E      Q     E  E  Q    E  Q        E       E   Q    E   E   E  E    
-----------------------------------|----------------------------------|
---------4p----3-------------------|----------------------------------|
---------3-----3-------------------|-------------------3h--5---L--3---|
---------------------1----3--3\----|--5p------3h--5----3h--5~--L--3~--|
---------------------1----3--3\----|--5p------3h--5-------------------|
-----------------------------------|----------------------------------|


  S S  E  Q    Q     Q       E   E   Q    E   E   E  E    
--------------------------|------------------------------|
--------------------------|------------------------------|
--L------------8----10----|---------------3h--5~--L--3~--|
--L-5p-3--5----8----10----|--5p--3h--5----3h--5---L--3---|
----------5----6-----8----|--5p--3h--5-------------------|
--------------------------|------------------------------|


  S S  E  Q    E   E  Q        E   E   Q    E   E   E  E    
----------------------------|------------------------------|
----------------------------|------------------------------|
--L-------------------------|---------------3h--5---L--3---|
--L-5p-3--5----1p--0--------|--5p--3h--5----3h--5~--L--3~--|
----------5-----------3~----|--5p--3h--5-------------------|
----------------------------|------------------------------|


  S S  E  Q    Q     Q       E   E   Q    E   E   E  E     W                 
--------------------------|-----------------------------|-------------------|
--------------------------|-----------------------------|-------------------|
--L------------8----10----|---------------3h--5~--L-----|-------------------|
--L-5p-3--5----8----10----|--5p--3h--5----3h--5---L--5--|--L----------------|
-------3--5----6-----8----|--5p--3h--5---------------5--|--L----------------|
--------------------------|--------------------------3--|--L----------------|


                  Solo Rhythm:                                                
  H.              H.           Q       H.           Q       W                 
---------------|--------------------|--------------------|-------------------|
---------------|---------------3----|--4-----------------|-------------------|
---------------|--5------------2----|--3------------3----|-------------------|
---------------|--5------------0----|--1------------3----|--6----------------|
---------------|--3-----------------|---------------1----|--6----------------|
---------------|--------------------|--------------------|--4----------------|


  W                   H.           Q       H.           Q     
-------------------|--------------------|--------------------|
-------------------|---------------3----|--4-----------------|
--3----------------|--5------------2----|--3------------3----|
--3----------------|--5------------0----|--1------------3----|
--1----------------|--3-----------------|---------------1----|
-------------------|--------------------|--------------------|


  W                   W                   Q    S S S S  H         
-------------------|-------------------|-------------------------|
-------------------|-------------------|-------------------------|
-------------------|--3----------------|-------------------------|
--6----------------|--3----------------|--3----L-------/5--------|
--6----------------|--1----------------|--3----L-------/5--------|
--4----------------|-------------------|--1----L-x-x-x-----------|


  Q    S S S S E  S S E  S S    Q    S S S S  H         
-----------------------------|-------------------------|
-----------------------------|-------------------------|
-----------------------------|-------------------------|
--3----L-------3------3------|--5----L-------/8--------|
--3----L-------3------3------|--5----L-------/8--------|
--1----L-x-x-x-1--1-1-1--1-1-|--3----L-x-x-x-----------|


       PM PM PM PM PM PM PM PM                                 
  Q    S  S  S  S  S  S  S  S  Q       Q    S S S S  H         
------------------------------------|-------------------------|
------------------------------------|-------------------------|
------------------------------------|-------------------------|
--5----------------------------5----|--3----L-------/5--------|
--5----------------------------5----|--3----L-------/5--------|
--3----3--3--3--3--3--3--3--3--3----|--1----L-x-x-x-----------|


  Q    S S S S E  S S E  S S    H        Q    E  E     E  E   Q    E  E  Q     
-----------------------------|----------------------|-------------------------|
-----------------------------|----------------------|--------------------8----|
-----------------------------|-----------3----3--8--|--L--x--10----L--8--5----|
--3----L-------3------3------|--5--------3----3--8--|--L--x--10----L--8--5----|
--3----L-------3------3------|--5--------1----1--6--|--L--x---8----L--6-------|
--1----L-x-x-x-1--1-1-1--1-1-|--3-------------------|-------------------------|


                             Verse 5:                    
                                               PM PM PM  
  E  E   Q    E  E   Q       Q        E  E  E  E  E  E   
--------------------------|-----------------------------|
--L-----------------------|-----------------------------|
--L--x--10----8--7\--L----|--5-----------5--L-----------|
--L--x--10----8--7\--L----|--5-----------5--L-----------|
-----x---8----6--5\--L----|--3--------3--3--L--3--3--3--|
--------------------------|-----------------------------|


  E  E   E  E  Q     E  E      Q    Q    Q    E  E   
----------------------------|-----------------------|
-----6p--4-----3~-----------|-----------------------|
-----5---5-----3~-------5\--|--3----3----3----L--3--|
------------------------5\--|--3----3----3----L--3--|
--3---------3--------3------|--1----1----1----L--1--|
----------------------------|-----------------------|


  E  E   E  E  E   E  E  E      H         H           Q     E  E   H         
-----------------------------|---------------------|------------------------|
-----6p--4-----4p--3---------|---------------------|------------------------|
--L--5---5-----3---3-----3\--|---------------------|--7--------7---L--------|
--L----------------------3\--|------------6--------|--6~-------6~--L--------|
--L---------1---------1------|------------6--------|------------------------|
-----------------------------|--4~-----------------|--------4---------------|


  W                   E  E  E  E  E  E  E  E     Q    H        E  E   
-------------------|--------------------------|----------------------|
-------------------|--------------------------|----------------------|
-------------------|--------------------------|--5----5--------5-----|
--5----------------|--L--3--3-----3-----3-----|--5----5--------5-----|
--5----------------|--L--1--1--5--1--5--1--5--|--3----3--------3-----|
--3----------------|--L--------3-----3-----3--|----------------------|


                                  Outro Chorus:                         
  W.                  H           E             E   Q    E   E   E  E   
-------------------|-----------|---------------------------------------|
-------------------|-----------|---------------------------------------|
-------------------|-----------|-------------------------3h--5---L-----|
-------------------|-----------|--5p------------3h--5----3h--5~--L--5--|
-------------------|-----------|--5p------------3h--5---------------5--|
-------------------|-----------|---------------------------------------|


  E  E   Q     E  E   E   E     E   E   Q    E   E   E  E   
-----------------------------|-----------------------------|
-----------------------------|-----------------------------|
-----------------------------|---------------3h--5~--L-----|
--L--3h--5~----L--3h--5p--3--|--5p--3h--5----3h--5---L--5--|
--L--3h--5-----L--3h--5p--3--|--5p--3h--5---------------5--|
-----------------------------|-----------------------------|


  E  E   Q     E  E   E   E     E   E   Q    E   E   E  E   
-----------------------------|-----------------------------|
-----------------------------|-----------------------------|
-----------------------------|---------------3h--5---L-----|
--L--3h--5~----L--3p--1h--3--|--5p--3h--5----3h--5~--L--5--|
--L--3h--5-----L--3p--1h--3--|--5p--3h--5---------------5--|
-----------------------------|-----------------------------|


  E  E   Q     E  E   E   E     H         H           H         H         
-----------------------------|---------------------|---------------------|
-----------------------------|---------------------|---------------------|
-----------------------------|---------------------|--7--------10--------|
--L--3h--5~----L--3h--5p--3--|--8--------10--------|--5---------8--------|
--L--3h--5-----L--3h--5p--3--|--6---------8--------|---------------------|
-----------------------------|---------------------|---------------------|


  Q    Q    E  E   E  E     E  E   Q    E  E   E   E     Q    Q    Q    E  E   
-------------------------|----------------------------|-----------------------|
-------------------------|----------------------------|-----------------------|
-------------------------|----------------------------|--8----8----8----L--8--|
--5----5----5--3h--5--5--|--L--3h--5----L--3h--5p--3--|--8----8----8----L--8--|
--5----5----5--3h--5--5--|--L--3h--5----L--3h--5p--3--|--6----6----6----L--6--|
--3----3--------------3--|--L-------------------------|-----------------------|


  E  E   E  E   E  E   E  E     Q    Q    E  E   E  E   
-----------------------------|-------------------------|
-----------------------------|-------------------------|
--L--8\--7--7\--5--5\--3--3--|-------------------------|
--L--8\--7--7\--5--5\--3--3--|--5----5----5--3h--5--5--|
--L--6\--5--5\--3--3\--1--1--|--5----5----5--3h--5--5--|
-----------------------------|--3----3--------------3--|


  E  E   Q    E  E   E   E     H         H           H         H         
----------------------------|---------------------|---------------------|
----------------------------|---------------------|---------------------|
----------------------------|---------------------|--7--------10--------|
--L--3h--5----L--3h--5p--3--|--8--------10--------|--5---------8--------|
--L--3h--5----L--3h--5p--3--|--6---------8--------|---------------------|
--L-------------------------|---------------------|---------------------|


    Outro:                                                    
    E      E   Q    E   E   E  E      E  E   Q    Q     Q     
|----------------------------------|-------------------------|
|----------------------------------|-------------------------|
|*------------------3h--5~--L------|--------------8----10----|
|*--5p-----3h--5----3h--5---L--5~--|--L--3h--5----8----10----|
|---5p-----3h--5---------------5---|--L--3h--5----6-----8----|
|----------------------------------|-------------------------|


  E   E   Q    E   E   E  E      E  E   Q    E   E  Q      
------------------------------|---------------------------|
------------------------------|---------------------------|
---------------3h--5~--L------|---------------------------|
--5p--3h--5----3h--5---L--5~--|--L--3h--5----1p--0--------|
--5p--3h--5---------------5---|--L--3h--5-----------3~----|
------------------------------|---------------------------|


  E   E   Q    E   E   E  E      E  E   Q    Q     Q     
------------------------------|-------------------------|
------------------------------|-------------------------|
---------------3h--5---L------|--------------8----10----|
--5p--3h--5----3h--5~--L--5~--|--L--3h--5----8----10----|
--5p--3h--5---------------5---|--L--3h--5----6-----8----|
------------------------------|-------------------------|


  Fade Out...                                               
  E           E   Q    E   E   E  E     W                 4x
-------------------------------------|--------------------||
-------------------------------------|--------------------||
-----------------------3h--5---L-----|-------------------*||
--5p----------3h--5----3h--5~--L--5--|--L----------------*||
--5p----------3h--5---------------5--|--L-----------------||
----------------------------------3--|--L-----------------||




Duration Legend
---------------
W - whole
H - half
Q - quarter
E - 8th
S - 16th
T - 32nd
X - 64th
. - note dotted
|-n-|  - n-tuplets


Tablature Legend
----------------
L - tied note
x - dead note
g - grace note
(n) - ghost note
> - accentuded note
NH - natural harmonic
AH - artificial harmonic
TH - tapped harmonic
SH - semi harmonic
PH - pitch harmonic
h - hammer on
p - pull off
b - bend
br - bendRelease
pb - preBend
pbr - preBendRelease
brb - bendReleaseBend
\n/ - tremolo bar dip
\n - tremolo bar dive
-/n - tremolo bar Release up
/n\ - tremolo bar inverted dip
/n - tremolo bar return
-\n - tremolo bar Release down
S - shift slide
s - legato slide
/ -  slide into from below or out of upwards
\ -  slide into from above or out of downwards
~ - vibrato
W - wide vibrato
tr - trill
TP - tremolo picking
T - tapping
S - slap
P - pop
< - fade in
^ - brush up
v - brush down





Comments


Popular Dio tabs & chords
Rainbow In The Dark Bass Tabs
All The Sailed Away Intro Tabs
Along Comes A Spider Intro 1 Tabs
Caught In The Middle 1 Tabs
End Of The World Intro Tabs
Evilution Tabs
Holy Diver 1 Tabs
Killing The Dragon Tabs
Rock And Roll Tabs
Stand Tabs


Song lyrics



↑ Back to top | Tablatures and chords are parodies/interpretations of the original songs. You may use it for private study, scholarship, research or language learning purposes only
© 2014 AZChords.com Contact us | Privacy policy | DMCA | Add/correct tabs | Request tabs | Top 50 tabs