» » »

End Of The World Tabs (ver.1)

Artists:  A B C D E F G H I J K L M N O P Q R S T U V W X Y Z # 

End Of The World Tabs (ver.1)

Dio
Rating:
0/5 (0 votes)

Hard to play? Try these video lessons and learn fast.
                (Intro)
Dio
"End of the World"
Master of the Moon
2004

Intro
e-----------------------------|
B-----------------------------|
G-----------------------------|
D---9-7/--666-66--------------|
A-2-7-5/--444-44-7/9/10-9-7---|
E-0--------------5/7/8--7-5---|

e-----------------------------|
B-----------------------------|
G-----------------------------|
D---9-7/--666-----------------|
A-2-7-5/--444-999/------------|
E-0-----------777/------------|
            
Hard to play? Try these video lessons and learn fast. | Correct




comments powered by Disqus
↑ Back to top | Tablatures and chords are parodies/interpretations of the original songs. You may use it for private study, scholarship, research or language learning purposes only