» » »

Eat Your Heart Out Tabs (ver.1)

Artists:  A B C D E F G H I J K L M N O P Q R S T U V W X Y Z # 

Eat Your Heart Out Tabs (ver.1)

Dio
Rating:
0/5 (0 votes)

Hard to play? Try these video lessons and learn fast.
                (Intro)
E------------------------------|
B------------------------------|
G------------------------------|
D------------------------------|
A---2-4-5---7--5-4-2-----------|
E---0-2-3---5--3-2-0-----------|

E------------------------------|
B------------------------------|
G------------------------------|
D---9-9-9----------------------|
A---7-7-7--4-5--12--10-9-7-----|
E----------2-3--10---8-7-5-----|

E------------------------------|
B------------------------------|
G------------------------------|
D------------------------------|
A---9-11-12--14--12-11-9-------|
E---7--9-10--12--10--9-7-------|

E-------------------------------|
B-------------------------------|
G-------------------------------|
D------------14--12-11-9--7-5-4-|
A---9-11-12--12--10--9-7--5-3-2-|
E---7--9-10---------------------|
            
Hard to play? Try these video lessons and learn fast. | Correct




comments powered by Disqus
↑ Back to top | Tablatures and chords are parodies/interpretations of the original songs. You may use it for private study, scholarship, research or language learning purposes only