» » »

Dio, Don't Talk To Strangers Tabs (ver.4)

Artists:  A B C D E F G H I J K L M N O P Q R S T U V W X Y Z # 

Don't Talk To Strangers Tabs (ver.4)

Dio Tabs
Rating:
0/5 (0 votes)
Don't Talk To Strangers lessons Tabs too difficult? Try these video lessons and learn fast
                (Intro)
          
e]------------------------------|------------------------------------|
B]--------1------1--------------|----------1-----1-------------------|
G]------2------2------2---------|-------3------3------3--------------|
D]---0------0------0------------|----0------0------0-----------------|
A]------------------------------|------------------------------------|
E]------------------------------|------------------------------------|

                               
e]------------------------------|
B]------1----1------------------|
G]----0----0---0-h2-------------|
D]--3----2---3------------------|
A]------------------------------|
E]------------------------------|

 
e]------------------------------|
B]--------1------1--------------|
G]------2------2------2---------|
D]---0------0------0------------| x2
A]------------------------------|
E]------------------------------|


e]------------------------------------|
B]----------1-----1-------------------|
G]-------3------3------3--------------|
D]----0------0------0-----------------|
A]------------------------------------|
E]------------------------------------|


e]------------------------------|
B]------1----1------------------|
G]----0----0---0-h2-------------|
D]--3----2---3------------------|
A]------------------------------|
E]------------------------------|



please comment if you think it sounds bad, and I'll try to fix it ;) 
            

comments powered by Disqus
↑ Back to top | Dio Tabs for Don't Talk To Strangers. Lyrics for acoustic guitar and electric guitar. Tablatures and chords are parodies/interpretations of the original songs. You may use it for private study, scholarship, research or language learning purposes only