» » »

Dio, Breathless Bass tabs (ver.1)

Artists:  A B C D E F G H I J K L M N O P Q R S T U V W X Y Z # 

Breathless Bass tabs (ver.1)

Dio Tabs
Rating:
0/5 (0 votes)
Breathless lessons Tabs too difficult? Try these video lessons and learn fast
                DIO - The Last In Line

Bass tab by Andre Couto (aka "Andre The Wizard (murder in the rue morgue)")


note: "*"s are used to represent the same note X times (listen to the song).


G-----|-----------------|---------------------------|-----||
D-----|-----------------|---------------------------|-----||
A--7--|----5---5---5-7--|----5---5---9-7*---5*---3--|--3======> 6 times
E-----|--7---7---7------|--7---7---7----------------|-----||

                    (0:34)
G---------|-----------------------||
D---------|-----------------------||
A--7*---5-|----5-7-7-7--5-7---5-7-||
E-----7---|--7--------------7-----||

  "you wait with pounding heart..."
G--------5------------5-------------------|
D------5----5-------5----5----------------|
A--3----------3-3----------3*--2*---------|
E----------------------------------5*-3*--|

  "but you're breathless..."
G----------------|----------|--------------||
D----------------|----------|--------------||
A--7*--5*----5-5-|--7*--5*--|--7*--5*--3*--||
E----------7-----|----------|--------------||

   solo
G---------------------|----------------|
D---------------------|----------------|
A--7*---3*---2*-------|--7*---3*---5*--|
E-----------------5*--|----------------|

G------------------------------------||
D------------------------------------||
A--7*---3*---2*----------------------||
E-----------------5*---7*-----3-2-0--||
            
Submit corrections

comments powered by Disqus
↑ Back to top | Dio Bass for Breathless. Lyrics for acoustic guitar and electric guitar. Tablatures and chords are parodies/interpretations of the original songs. You may use it for private study, scholarship, research or language learning purposes only