» » »

Dio, Another Lie Tabs (ver.2)

Artists:  A B C D E F G H I J K L M N O P Q R S T U V W X Y Z # 

Another Lie Tabs (ver.2)

Dio Tabs
 Rating:
4.3/5 (6 votes)
Another Lie lessons Tabs too difficult? Try these video lessons and learn fast
1
                    ----------------------------------|
         -----------------------------|
         -----------------------------|
         -----------6-----------------|
         ---6--8-8--4--8-6-6--3-6-8~--|
         ---4--6-6-----6-4-4--1-4-6~--|
         x3

         ----------------------------------------------------------------------------------------|
         ----------------------------------------------------------------------------------------|
         ----------------------------------------------------------------------------------------|
         -----------3----------------------3-----------------------------------------------------|
         ---3--5-5--1--5-3-3--2-3-5----5-5-1-5-3-------------------------------------------------|
         ---1--3-3-----3-1-1--0-1-3----3-3---3-1-------------------------------------------------|

         ----------------------------------------------------------------------------------------|
         ----------------------------------------------------------------------------------------|
         ----------------------------------------------------------------------------------------|
         -----------3----------------------3-----------------------------------------------------|
         ---3--5-5--1--5-3-3--2-3-5----5-5-1-5-3~---5-7-8--8-------------------------------------|
         ---1--3-3-----3-1-1--0-1-3----3-3---3-1~---3-5-6--6-------------------------------------|

         ----------------------------------------------------------------------------------------|
         -----------------------6--4-4-----------------------------------------------------------|
         --------------3--------5--3-3-------------------3-----6/7--5--3-------------------------|
         -----5-3------3------------------------5-3------3-----4/5--3--1--7-8--------------------|
         -----3-1--5-5---5-3--------------------3-1--5-5---5--------------5-6--------------------|
         ----------------------------------------------------------------------------------------|

         ----------------------------------------------------------------------------------------|
         -----------------------6--4-4-----------------------------------------------------------|
         --------------3--------5--3-3------------------8----------------------------------------|
         -----5-3------3------------------------5---3---8----------------------------------------|
         -----3-1--5-5---5-3--------------------5---3---6----------------------------------------|
         ---------------------------------------3---1--------------------------------------------|


         ----------------------------------------------------------------------------------------|
         -----------------------6--4-4-----------------------------------------------------------|
         --------------3--------5--3-3-------------------3-----6/7--5--3-------------------------|
         -----5-3------3------------------------5-3------3-----4/5--3--1--7-8--------------------|
         -----3-1--5-5---5-3--------------------3-1--5-5---5--------------5-6--------------------|
         ----------------------------------------------------------------------------------------|


         ----------------------------------------------------------------------------------------|
         -----------------------6--4-4-----------------------------------------------------------|
         --------------3--------5--3-3-----------------------------------------------------------|
         -----5-3------3------------------------5---3---5----------------------------------------|
         -----3-1--5-5---5-3--------------------5---3---5----------------------------------------|
         ---------------------------------------3---1---3----------------------------------------|

         ----------------------------------------------------------------------------------------|
         ----------------------------------------------------------------------------------------|
         ----------------------------------------------------------------------------------------|
         -8-7-------------------------8-7--------------------------------------------------------|
         -8-7--3-3-3-3...-------------8-7--------------------------------------------------------|
         -6-5--1-1-1-1...-------------6-5--------------------------------------------------------|
               . . . .


         ----------------------------------------------------------------------------------------|
         ----------------------------------------------------------------------------------------|
         ----------------------------------------------------------------------------------------|
         -----------3----------------------3-----------------------------------------------------|
         ---3--5-5--1--5-3-3--2-3-5----5-5-1-5-3-------------------------------------------------|
         ---1--3-3-----3-1-1--0-1-3----3-3---3-1-------------------------------------------------|
         x2


         ----------------------------------------------------------------------------------------|
         -----------------------6--4-4-----------------------------------------------------------|
         --------------3--------5--3-3-------------------3-----6/7--5--3-------------------------|
         -----5-3------3------------------------5-3------3-----4/5--3--1--7-8--------------------|
         -----3-1--5-5---5-3--------------------3-1--5-5---5--------------5-6--------------------|
         ----------------------------------------------------------------------------------------|


         ----------------------------------------------------------------------------------------|
         -----------------------6--4-4-----------------------------------------------------------|
         --------------3--------5--3-3-----------------------------------------------------------|
         -----5-3------3------------------------5---3---5----------------------------------------|
         -----3-1--5-5---5-3--------------------5---3---5----------------------------------------|
         ---------------------------------------3---1---3----------------------------------------|


         ----------------------------------------------------------------------------------------|
         ----------------------------------------------------------------------------------------|
         ----------------------------------------------------------------------------------------|
         -8-7-------------------------8-7--------------------------------------------------------|
         -8-7--3-3-3-3...-------------8-7--------------------------------------------------------|
         -6-5--1-1-1-1...-------------6-5--------------------------------------------------------|
               . . . .

         ----------------------------------13/14~------------------------------------------------|
         ----------------------------------------------------------------------------------------|
         ----------------------------------------------------------------------------------------|
         ----7~----5/6~--------------------------------------------------------------------------|
         ----7~----5/6~--------------------------------------------------------------------------|
         ----5~----3/4~--------------------------------------------------------------------------|
         (Solo)


         ----------------------------------------------------------------------------------------|
         -----------------------6--4-4-----------------------------------------------------------|
         --------------3--------5--3-3-------------------3-----6/7--5--3-------------------------|
         -----5-3------3------------------------5-3------3-----4/5--3--1--7-8--------------------|
         -----3-1--5-5---5-3--------------------3-1--5-5---5--------------5-6--------------------|
         ----------------------------------------------------------------------------------------|


         ----------------------------------------------------------------------------------------|
         -----------------------6--4-4-----------------------------------------------------------|
         --------------3--------5--3-3-----------------------------------------------------------|
         -----5-3------3------------------------5---3---5----------------------------------------|
         -----3-1--5-5---5-3--------------------5---3---5----------------------------------------|
         ---------------------------------------3---1---3----------------------------------------|


         ----------------------------------------------------------------------------------------|
         ----------------------------------------------------------------------------------------|
         ----------------------------------------------------------------------------------------|
         -8-7-------------------------8-7-----12-------------------------------------------------|
         -8-7--3-3-3-3...-------------8-7-----12-------------------------------------------------|
         -6-5--1-1-1-1...-------------6-5-----10-------------------------------------------------|
               . . . .


         ----------------------------------------------------------------------------------------|
         ----------------------------------------------------------------------------------------|
         ----------------------------------------------------------------------------------------|
         -----------5----------------------------------5-----------------------------------------|
         ---5--7-7--3--7--5-5--2--5--7-------------7-7-3--7-5------------------------------------|
         ---3--5-5-----5--3-3--0--3--5-------------5-5----5-3------------------------------------|
         x2


         ----------------------------------------------------------------------------------------|
         ----------------------------------------------------------------------------------------|
         ----------------------------------------------------------------------------------------|
         -----------5----------------------------------5--11-9--7--6-----------------------------|
         ---5--7-7--3--7--5-5--2--5--7-------------7-7-3--9--7--5--4-----------------------------|
         ---3--5-5-----5--3-3--0--3--5-------------5-5-------------------------------------------|
            
Submit corrections

comments powered by Disqus
↑ Back to top | Dio Tabs for Another Lie. Lyrics for acoustic guitar and electric guitar. 1 Tablatures and chords are parodies/interpretations of the original songs. You may use it for private study, scholarship, research or language learning purposes only