» » »

Dinosaur Jr., I Ain't Sayin' Tabs (ver.1)

Artists:  A B C D E F G H I J K L M N O P Q R S T U V W X Y Z # 

I Ain't Sayin' Tabs (ver.1)

Dinosaur Jr. Tabs
Rating:
0/5 (0 votes)
Hard to play? Try these video lessons and learn fast.
                
                              
e|-----17--15-14----14-----17b-17-15-14----14---|
B|--15-----------17-----15--------------17------|
G|----------------------------------------------| x2
D|----------------------------------------------|
A|----------------------------------------------|
E|----------------------------------------------|


F#m                     A                                    
Run outside my eyes are burning.
                            F#m
Your eyes light up, now I'm learning.
                           A 
Not a good time, heels are turning.
                             F#m                              
And they're rolling home to you.
                          A
Left a few things I'll be back for.
                         F#m
It's a drag still need a few more.
                               A
When you're scratching out the back door

and I'm rolling home to you.

Bridge:

    B7sus4          B7sus4          Dsus2
e|---0-0--2p0--2p0-0--0--2p0--2p0-0--5-5---0-0---5-5---0-0-|
B|---0-0-----0----0---0-----0----0---5-5---5-5---5-5---5-5-|
G|---4-4--------------4--------------7-7---7-7---7-7---7-7-|
D|---4-4--------------4--------------7-7---7-7---7-7---7-7-|
A|---0-0--------------0--------------0-0---0-0---0-0---0-0-|
E|---x-x--------------x--------------x-x---x-x---x-x---x-x-|



F#m                           A
Scratch it off, it won't stop peeling.
                                    F#m
But you’re hooked, you just stopped dealing.
                             A
Don't need walls, you need a ceiling,
                           F#m
Cause you're floating off again.
                         A
Run outside, my eyes are burning.
                       F#m
Eyes light up, now I'm learning
                           A
Not a good time, heels are turning

Rolling home to you.


Bridge:

    B7sus4          B7sus4          Dsus2
e|---0-0--2p0--2p0-0--0--2p0--2p0-0--5-5---0-0---5-5---0-0-|
B|---0-0-----0----0---0-----0----0---5-5---5-5---5-5---5-5-|
G|---4-4--------------4--------------7-7---7-7---7-7---7-7-|
D|---4-4--------------4--------------7-7---7-7---7-7---7-7-|
A|---0-0--------------0--------------0-0---0-0---0-0---0-0-|
E|---x-x--------------x--------------x-x---x-x---x-x---x-x-|



F#m               A
Left a few things I'll be back for.
F#m          A
It's a drag, still need a few more.
F#m            A
Not a good sign
F#m      A
       And I'm rolling home to you.


Bridge


Intro repeated till fades out


So it goes...
            

comments powered by Disqus
↑ Back to top | Dinosaur Jr. Tabs for I Ain't Sayin'. Lyrics for acoustic guitar and electric guitar. Tablatures and chords are parodies/interpretations of the original songs. You may use it for private study, scholarship, research or language learning purposes only