>
 >
Heru Mertar 1

Heru Mertar 1 Guitar Tabs

Dimeola Al - Heru Mertar 1 chords, tabs, tablatures, lyrics

Guitar lessons | Add/correct | Request | Top 50 tabs Artists:  A B C D E F G H I J K L M N O P Q R S T U V W X Y Z 0-9

Heru Mertar 1 Guitar Tabs – Dimeola Al

CD, Sheet music, Poster

Do you like Heru Mertar 1? Share with your friends now
TabsTabs v2
+==============================================================================+
|                          AL DI MEOLA                                         |
|        >>>>>>>>>>>      'HERU MERTAR'      <<<<<<<<<<<                       |
|                       from WORLD SIMFONIA                                    |
+==============================================================================+

Hi!!! This is my transcription of Al Di Meola's ~Heru Mertar~ from
         World Simfonia/Hearts of the Immigrants

-->3rd position                                            repeat
E|-------------|-------------|-------------|-------------|---   --|
B|-------3-----|-------3-----|-------3-----|-------3-----|---   --|
G|-------3-----|-------3-----|-------3-----|-------3-----|--- % --|
D|-----7-------|-----7-------|-----7-------|-----7-------|---   --|
A|---5---------|---5---------|---5---------|---5---------|---   --|
E|-3-----------|-3-----------|-3-----------|-3-----------|---   --|

-->8th position
E|-------------|-------------|-----   ------|-----
B|---------8---|---------8---|-----   ------|-----
G|---------8---|---------8---|----- % ------|-----
D|------12-----|------12-----|-----   ------|-----
A|---10--------|---10--------|-----   ------|-----
E|-8-----------|-8-----------|-----   ------|-----

-->6th position
E|-------------|-------------|-----   ------|-----
B|--------6----|--------6----|-----   ------|-----
G|--------7----|--------7----|----- % ------|-----
D|-----10------|-----10------|-----   ------|-----
A|---8---------|---8---------|-----   ------|-----
E|-6-----------|-6-----------|-----   ------|-----

-->8th position
E|-------------|-------------|-----   ------|-----
B|---------8---|---------8---|-----   ------|-----
G|---------8---|---------8---|----- % ------|-----
D|------12-----|------12-----|-----   ------|-----
A|---10--------|---10--------|-----   ------|-----
E|-8-----------|-8-----------|-----   ------|-----

-->6th position
E|-------------|-------------|-----   ------|-----
B|--------6----|--------6----|-----   ------|-----
G|--------7----|--------7----|----- % ------|-----
D|-----10------|-----10------|-----   ------|-----
A|---8---------|---8---------|-----   ------|-----
E|-6-----------|-6-----------|-----   ------|-----

-->1st position
E|-------------|-------------|-----   ------|-----
B|-------1-----|-------1-----|-----   ------|-----
G|-------2-----|-------2-----|----- % ------|-----
D|-----5-------|-----5-------|-----   ------|-----
A|---3---------|---3---------|-----   ------|-----
E|-1-----------|-1-----------|-----   ------|-----


-->3rd position
E|-------------|-------------|-------------|-------------|---   --|
B|-------3-----|-------3-----|-------3-----|-------3-----|---   --|
G|-------3-----|-------3-----|-------3-----|-------3-----|--- % --|
D|-----7-------|-----7-------|-----7-------|-----7-------|---   --|
A|---5---------|---5---------|---5---------|---5---------|---   --|
E|-3-----------|-3-----------|-3-----------|-3-----------|---   --|
                                                                etc.

___________
some notes:
~~~~~~~~~~~
--->          AL DI MEOLA - GUITAR, ROLAND GRI GUITAR SYNTHESIZER
        ARTO TUNCBOYACIAN - PERCUSSION, VOICE

--- if the 1st position is  difficult for you ----+
                                                  |
                                                  |
   +--------- use this version!!! ----------------+
   |
   |       E|------------|--
   |       B|-------1----|--      (<--- ??!?!?#?!!!)
   |       G|-----0-2----|--
   +-----> D|------------|--
           A|---3--------|--
           E|-1----------|--


                              HAVE FUN !!!!!!!!

                                                      B!l a$





Comments


Popular Dimeola Al tabs & chords
African Night Tabs
Bianca Midnight Lullaby Tabs
Bianca Midnight Lullaby 1 Tabs
Heru Mertar Tabs
Mediterranean Sundance Tabs
Mediterranean Sundance 1 Tabs
Somalia Tabs


Song lyrics



↑ Back to top | Tablatures and chords are parodies/interpretations of the original songs. You may use it for private study, scholarship, research or language learning purposes only
© 2014 AZChords.com Contact us | Privacy policy | DMCA | Add/correct tabs | Request tabs | Top 50 tabs