» » »

Bianca Midnight Lullaby Tabs (ver.2)

Artists:  A B C D E F G H I J K L M N O P Q R S T U V W X Y Z # 

Bianca Midnight Lullaby Tabs (ver.2)

Dimeola Al
Rating:
0/5 (0 votes)

Hard to play? Try these video lessons and learn fast.
                AL DiMEOLA
BIANCA'S MIDNIGHT LULLABY
(AL DiMEOLA GREATEST HITS)

E--5-7-/9--\12--7--5-7-9-12-17--16-14-12-12---5-4-5-2-4-0------------------
B--5---------------5--------------------------------------2-3-5-5-3-2-2-0-0
G--6---------------6-------------------------------------------------------

E---------------5-7-/9--\12--7--5-7-9-12-17--16-14-12-12
B-0-------------5---------------5-----------------------
G--1------------6---------------6-----------------------
D---2-1-0-7-7-------------------------------------------

E-5-4-5-2-4-0-------------------------------
B-------------2-3-5-5-3-2-2-0-0--0----------
G---------------------------------1---------
D----------------------------------2-1-0-7-7

Partialy muted part :
E--7-5-4-7-16-12-17--7-5-4-7-16-12-------------5-7-9-12-14-12-12
B----------------------------------9-7-5-3-2-5------------------
G---------------------------------------------------------------

E--7-5-4-7-16-12-17--7-5-4-7-16-12-------------5-7-9-12-7-5-5---
B----------------------------------9-7-5-3-2-5------------------
G---------------------------------------------------------------

Back to start :
E--5-7-/9--\12--7--5-7-9-12-17--16-14-12-12---5-4-5-2-4-0------------------
B--5---------------5--------------------------------------2-3-5-5-3-2-2-0-0
G--6---------------6-------------------------------------------------------

Playing a bit slower:
E-------------
B-0-----------
G--1----------
D---2-1-0-7-7-

That's my transcription of Al DiMeola's Bianca's Midnight Lullaby from Greatest
Hits. Sorry, but it was too difficult for me to figure out the second guitar.
            
Hard to play? Try these video lessons and learn fast. | Correct




comments powered by Disqus
↑ Back to top | Tablatures and chords are parodies/interpretations of the original songs. You may use it for private study, scholarship, research or language learning purposes only