» » »

Dillon Bethany, The Kingdom Tabs (ver.1)

Artists:  A B C D E F G H I J K L M N O P Q R S T U V W X Y Z # 

The Kingdom Tabs (ver.1)

Dillon Bethany Tabs
Rating:
0/5 (0 votes)
The Kingdom lessons Tabs too difficult? Try these video lessons and learn fast
                -------------------------------------------------------------------------------
                             THE KINGDOM - Bethany Dillon
-------------------------------------------------------------------------------

This is from Bethany Dillon's acoustic version at:
Listen to it to get the strumming patterns.

I can barely play the guitar yet, but I've listened really carefully and think
that this tab works.  Email me with any corrections/feedback.

Notes:
(x) means you should mute it, but you don't absolutely have to.  Good for 
beginners like me, especially when stretching that pinky. :P

Tuning: Standard (EADGBe)

INTRO (play this line 2x) and VERSE (play this line 4x)

e|-(x)-----x--------|-(x)-----x---------|-(x)-----x-------|-(x)------x---(x)-|
B|------------------|-------------------|-----------------|------------------|
G|--9------8--------|-11------8---------|--9------8-------|--9-------8----9--|
D|--9------9--------|--9------9---------|--9------9-------|--9-------9----9--|
A|--7------7--------|--7------7---------|-----------------|------------------|
E|------------------|-------------------|--x------x-------|--x-------x----x--|

It tapped me on the shoulder today when I got home
I saw everything collecting dust; it made me hope there was something more
I pore over pages, desperate to find out why
The cripple at your table has what I'm longing to find


PRECHORUS

e|------------------|-------------------|-----------------|------------------|
B|------------------|-------------------|-----------------|------------------|
G|--2---------------|--6----------------|--2--------------|--2---------4-----|
D|--2---------------|--6----------------|--2--------------|--2---------4-----|
A|------------------|--4----------------|-----------------|------------2-----|
E|--2---------------|--x----------------|--2--------------|--x---------x-----|

Teach me how to hum it, because I don't know the words yet


CHORUS (play this line 2x)

e|-(x)-----x----(x)-|-(x)-----x-----(x)-|-(x)-----x---(x)-|-(x)------x---(x)-|
B|------------------|-------------------|-----------------|------------------|
G|--9------8-----9--|--9------8------9--|--9------8----9--|--9-------8----9--|
D|--9------9-----9--|--9------9------9--|--9------9----9--|--9-------9----9--|
A|--7------7-----7--|--x------x------x--|--x------x----x--|------------------|
E|------------------|--7------7------7--|--9------9----9--|--x-------x----x--|

Help me see the light, I'm reaching through the fight, Yahweh, show me the ...
Arms open wide, death swallowed up by life, Yahweh, show me the Kingdom


INTERLUDE (1x) and VERSE (4x) (same as INTRO and VERSE above)

e|-(x)-----x--------|-(x)-----x---------|-(x)-----x-------|-(x)------x---(x)-|
B|------------------|-------------------|-----------------|------------------|
G|--9------8--------|-11------8---------|--9------8-------|--9-------8----9--|
D|--9------9--------|--9------9---------|--9------9-------|--9-------9----9--|
A|--7------7--------|--7------7---------|-----------------|------------------|
E|------------------|-------------------|--x------x-------|--x-------x----x--|

Why are some women barren while the wicked's house is full
The stories never seem to end, give me evidence I'm not alone
You said the weak would be lifted up, but maybe just not yet
So while I wait in this flesh and blood, I'll learn to lean in


CHORUS (2x) (same as CHORUS above)

e|-(x)-----x----(x)-|-(x)-----x-----(x)-|-(x)-----x---(x)-|-(x)------x---(x)-|
B|------------------|-------------------|-----------------|------------------|
G|--9------8-----9--|--9------8------9--|--9------8----9--|--9-------8----9--|
D|--9------9-----9--|--9------9------9--|--9------9----9--|--9-------9----9--|
A|--7------7-----7--|--x------x------x--|--x------x----x--|------------------|
E|------------------|--7------7------7--|--9------9----9--|--x-------x----x--|

Help me see the light, I'm reaching through the fight, Yahweh, show me the ...
Arms open wide, death swallowed up by life, Yahweh, show me the Kingdom


BRIDGE (instrumental)

e|------------------|-------------------|-----------------|------------------|
B|------------------|-------------------|-----------------|------------------|
G|--2---------------|--4----------------|--2--------------|--4---------------|
D|--2---------------|--4----------------|--2--------------|--4---------------|
A|------------------|--x----------------|-----------------|--2---------------|
E|--2---------------|--4----------------|--x--------------|--x---------------|

e|------------------|-------------------|-----------------|------------------|
B|------------------|-------------------|-----------------|--1---------------|
G|--2---------------|--4----------------|--2--------------|--2------------2--|
D|--2---------------|--4----------------|--2--------------|--2------------2--|
A|------------------|--x----------------|-----------------|------------------|
E|--2---------------|--4----------------|--x--------------|--x------------x--|


CHORUS AFTER BRIDGE

e|-(x)--------------|-(x)---------------|-(x)-------------|-(x)--------------|
B|------------------|-------------------|-----------------|------------------|
G|--9---------------|--9----------------|--9--------------|--9---------------|
D|--9---------------|--9----------------|--9--------------|--9---------------|
A|--7---------------|--7----------------|-----------------|------------------|
E|--x---------------|--x----------------|--x--------------|--x---------------|

Help me see the light, I'm reaching through the fight, Yahweh, show me the ...

e|-(x)--------------|-(x)---------------|-(x)-------------|-(x)--------------|
B|------------------|-------------------|-----------------|------------------|
G|--9---------------|--9----------------|--9--------------|--9---------------|
D|--9---------------|--9----------------|--9--------------|--9---------------|
A|--7---------------|--7----------------|-----------------|------------------|
E|------------------|-------------------|--x--------------|--x---------------|

Arms open wide, death swallowed up by life, Yahweh, show me the Kingdom


CHORUS (2x) (same as CHORUS above)

e|-(x)-----x----(x)-|-(x)-----x-----(x)-|-(x)-----x---(x)-|-(x)------x---(x)-|
B|------------------|-------------------|-----------------|------------------|
G|--9------8-----9--|--9------8------9--|--9------8----9--|--9-------8----9--|
D|--9------9-----9--|--9------9------9--|--9------9----9--|--9-------9----9--|
A|--7------7-----7--|--x------x------x--|--x------x----x--|------------------|
E|------------------|--7------7------7--|--9------9----9--|--x-------x----x--|

Help me see the light, I'm reaching through the fight, Yahweh, show me the ...
Arms open wide, death swallowed up by life, Yahweh, show me the Kingdom

ENDING (8.5x - end with strum on first chord)

e|-(x)-----x--------|
B|------------------|
G|--9------8--------|
D|--9------9--------|
A|--7------7--------|
E|------------------|

(First 2x without singing)
The Kingdom,
The Kingdom, yeah


| /  slide up
| \  slide down
| h  hammer-on
| p  pull-off
| ~  vibrato
| +  harmonic
| x  Mute note
===============================================================================
            
Submit corrections

comments powered by Disqus
↑ Back to top | Dillon Bethany Tabs for The Kingdom. Lyrics for acoustic guitar and electric guitar. Tablatures and chords are parodies/interpretations of the original songs. You may use it for private study, scholarship, research or language learning purposes only