>
 >
Zehn Kleine Jgermeister

Zehn Kleine Jgermeister Bass Tabs

Die Toten Hosen - Zehn Kleine Jgermeister chords, tabs, tablatures, lyrics

Guitar lessons | Add/correct | Request | Top 50 tabs Artists:  A B C D E F G H I J K L M N O P Q R S T U V W X Y Z 0-9

Zehn Kleine Jgermeister Bass Tabs – Die Toten Hosen

CD, Sheet music, Poster

Do you like Zehn Kleine Jgermeister? Share with your friends now
Bass TabsChordsTabsUkulele
This is my first bass tab, hope you enjoy it. I think it's cool to play.

Bass starts at 0:18 with Intro:
G||------------------------------------------------------------------|
D||------------------------------------------------------------------|
A||-------2-5--5-2--------2-5--5-2--------2-5--5-2--------2-5--5-2---|
E||--3--3----------5-3--3----------5-3--3----------5-3--3----------5-|

Verse 1 and 2 (10 kleine Jägermeister, ... 9 kleine Jägermeister,...):
G|--------------------------------------------------------------------|
D|---------------------------------------2-5--5-2---------------------|    x2
A|-------2-5--5-2--------2-5--5-2---3--3----------4-5--5-2------------|
E|--3--3----------5-3--3----------5------------------------5-3--33-0-2|

Verse 3 (with bridge to chorus):
G|--------------------------------------------------------------------|
D|--------------------------------------------------------------------|
A|-------2-5--5-2--------2-5--5-2---3-----------------5---------------|
E|--3--3----------5-3--3----------5-----------------------------3-----|
                                    SIEben ...    und EIner... KÖLN!

Chorus:
G|-----------------------------------------------------------------|
D|-----------------------------------------------------------------|
A|-------------------------5-5-5-5-5-5-5-5-5-5-5-5-5-5-5-5---------|
E|-3-3-3-3-3-3-3-3-3-3-3-3---------------------------------3-3-3-3-|

G|---------------------------------------------------------|
D|---------------------------------------------------------|
A|-------------------------3-3-3-3-3-3-3-3-3-3-3-3-5-5-5-5-|   INSTANTLY to Verse 4 Intro!
E|-3-3-3-3-3-3-3-3-3-3-3-3---------------------------------|

Verse 4 Intro:
G|----------------------------------|
D|----------------------------------|
A|-------2-5--5-2--------2-5--5-2---|
E|--3--3----------5-3--3----------5-|

Verse 4 and 5:
G|--------------------------------------------------------------------|
D|---------------------------------------2-5--5-2---------------------|    x2
A|-------2-5--5-2--------2-5--5-2---3--3----------4-5--5-2------------|
E|--3--3----------5-3--3----------5------------------------5-3--33-0-2|

Verse 6 (Fünf kleine...):
G|--------------------------------------------------------------------|
D|--------------------------------------------------------------------|
A|-------2-5--5-2--------2-5--5-2---3-----------------5---------------|
E|--3--3----------5-3--3----------5-----------------------------3-----|
                                ein POlizist...   da WARN...  VIERT!

Chorus:
G|-----------------------------------------------------------------|
D|-----------------------------------------------------------------|
A|-------------------------5-5-5-5-5-5-5-5-5-5-5-5-5-5-5-5---------|
E|-3-3-3-3-3-3-3-3-3-3-3-3---------------------------------3-3-3-3-|

G|-----------------------------------------------------------------|
D|-----------------------------------------------------------------|
A|-------------------------3-3-3-3-3-3-3-3-3-3-3-3-5-5-5-5---------|
E|-3-3-3-3-3-3-3-3-3-3-3-3---------------------------------3-3-3-3-|

Chorus 2 (Einmal muss jeder gehn...):
G|------------------------------------------------------------|
D|------------------------------------------------------------|
A|-3-3-3-3-3-3-3-3-----------------5-5-5-5-5-5-5-5------------|
E|-----------------3-3-3-3-3-3-3-3-----------------3--5--6--7-|

G|-------------------------------------------------|
D|-------------------------------------------------|
A|------(slide here, sounds good)--5-5-5-5-5-5-5-5-|    INSTANTLY to Verse 7 Intro!
E|-8-8-8-8-8-8-8-8\3-3-3-3-3-3-3-3-----------------|

Verse 7 Intro:
G|------------------------------------------------------------------|
D|------------------------------------------------------------------|
A|-------2-5--5-2--------2-5--5-2--------2-5--5-2--------2-5--5-2---|
E|--3--3----------5-3--3----------5-3--3----------5-3--3----------5-|

Verse 7 and 8:
G|--------------------------------------------------------------------|
D|---------------------------------------2-5--5-2---------------------|    x2
A|-------2-5--5-2--------2-5--5-2---3--3----------4-5--5-2------------|
E|--3--3----------5-3--3----------5------------------------5-3--33-0-2|

Verse 9:
G|--------------------------------------------------------------------|
D|--------------------------------------------------------------------|
A|-------2-5--5-2--------2-5--5-2---3-----------------5---------------|
E|--3--3----------5-3--3----------5-----------------------------3-----|
                                   EIner...      der ANdre...  VIEL!

Chorus (Slow to fast):
G|----------------------------------------------------------------------|
D|----------------------------------------------------------------------|
A|----------------5----5----5----5--------------------3---3---3---5-----|
E|-3----3----3------------------------3---3---3---3-------------------3-|

Chorus 2:
G|------------------------------------------------------------|
D|------------------------------------------------------------|
A|-3-3-3-3-3-3-3-3-----------------5-5-5-5-5-5-5-5------------|
E|-----------------3-3-3-3-3-3-3-3-----------------3--5--6--7-|

G|-----------------------------------------------------------------|
D|-----------------------------------------------------------------|
A|-----------(slide again)---------5-5-5-5-5-5-5-5-----------------|
E|-8-8-8-8-8-8-8-8\3-3-3-3-3-3-3-3-----------------3-3-3-3-3-3-3-3-|

Chorus (Faster):
G|-----------------------------------------------------------------|
D|-----------------------------------------------------------------|
A|-------------------------5-5-5-5-5-5-5-5-5-5-5-5-5-5-5-5---------|
E|-3-3-3-3-3-3-3-3-3-3-3-3---------------------------------3-3-3-3-|

G|-----------------------------------------------------------------|
D|-----------------------------------------------------------------|
A|-------------------------3-3-3-3-3-3-3-3-3-3-3-3-5-5-5-5---------|
E|-3-3-3-3-3-3-3-3-3-3-3-3---------------------------------3-3-3-3-|

Chorus 2:
G|------------------------------------------------------------|
D|------------------------------------------------------------|
A|-3-3-3-3-3-3-3-3-----------------5-5-5-5-5-5-5-5------------|
E|-----------------3-3-3-3-3-3-3-3-----------------3--5--6--7-|

G|------------------------------------------------------------|
D|------------------------------------------------------------|
A|-----------(slide again)---------5-5-5-5-5-5-5-5------------|
E|-8-8-8-8-8-8-8-8\3-3-3-3-3-3-3-3-----------------3--5--6--7-|

G|----------------------------------------------------|
D|----------------------------------------------------|
A|-----------(slide last time)-----5---3---2----------|
E|-8-8-8-8-8-8-8-8\3-3-3-3-3-3-3-3-----------3-(hold)-|

Outro:
G|----------------------------------------------------------------------------||
D|----------------------------------------------------------------------------||
A|-------4-7--7-4--------4-7--7-4-----------4-7--7-4--------4-7--7-4---5------||
E|--5--5----------7-5--5----------7-5--5--5----------7-5--5----------7-------5||





Comments


Popular Die Toten Hosen tabs & chords
Unsterblich Bass Tabs
Opel-Gang Chords
12 Stark Tabs
Bayern Tabs
Opel-Gang Tabs
Prominentenpsychose Tabs
Steh Auf, Wenn Du Am Boden Bist Tabs
Wort Zum Sonntag Tabs
Achterbahn Ukulele
Draussen Vor Der Tuer Ukulele


Song lyrics



↑ Back to top | Tablatures and chords are parodies/interpretations of the original songs. You may use it for private study, scholarship, research or language learning purposes only
© 2014 AZChords.com Contact us | Privacy policy | DMCA | Add/correct tabs | Request tabs | Top 50 tabs