» » »

Die Toten Hosen, Innen Alles Neu Tabs (ver.1)

Artists:  A B C D E F G H I J K L M N O P Q R S T U V W X Y Z # 

Innen Alles Neu Tabs (ver.1)

Die Toten Hosen Tabs
Rating:
0/5 (0 votes)
Innen Alles Neu lessons Tabs too difficult? Try these video lessons and learn fast
                Intro
|---------------------------------------------------------------------|
|---------------------------------------------------------------------|
|-4-4-4-4-4-4-4-4-4-4-4-4-5-5-5-5-8-8-8-8-8-8-8-8-8-8-8-8-10-10-10-10-|
|-5-5-5-5-5-5-5-5-5-5-5-5-5-5-5-5-5-5-5-5-5-5-5-5-5-5-5-5-5--5--5--5--|
|---------------------------------------------------------------------|
|---------------------------------------------------------------------|
oder
|---------------------------------------------------------------------|
|-0-0-0-0-0-0-0-0-0-0-0-0-1-1-1-1-4-4-4-4-4-4-4-4-4-4-4-4-6-6-6-6-6-6-|
|-0-0-0-0-0-0-0-0-0-0-0-0-0-0-0-0-0-0-0-0-0-0-0-0-0-0-0-0-0-0-0-0-0-0-|
|---------------------------------------------------------------------|
|---------------------------------------------------------------------|
|---------------------------------------------------------------------|

Verse
Guitar 1
|---------------------------------------------------------------------|
|---------------------------------------------------------------------|
|-4-4-4-4-4-4-4-4-4-4-4-4-5-5-5-5-8-8-8-8-8-8-8-8-8-8-8-8-10-10-10-10-|
|-5-5-5-5-5-5-5-5-5-5-5-5-5-5-5-5-5-5-5-5-5-5-5-5-5-5-5-5-5--5--5--5--|
|---------------------------------------------------------------------| (4X)
|---------------------------------------------------------------------|

Guitar 2
|------------------------------------------------------------------|
|------------------------------------------------------------------|
|-4-4-4-4-4-4-4-4-4-4-4-4-5-5-5-5-5-5-5-5-5-5-5-5-5-5-5-5-8-8-8-8--|
|-5-5-5-5-5-5-5-5-5-5-5-5-x-x-x-x-x-x-x-x-x-x-x-x-x-x-x-x-x-x-x-x--|
|-------------------------3-3-3-3-3-3-3-3-3-3-3-3-3-3-3-3-6-6-6-6--| (4X)
|------------------------------------------------------------------|

      G
Dabei bin ich grad gut drauf,
      D#
denn innen ist alles neu
     F                    G
das sieht vielleicht von außen nicht so aus
     D#
aber innen ist alles neu
    F
und ich bin okay

Verse
Guitar 1
|---------------------------------------------------------------------|
|---------------------------------------------------------------------|
|-4-4-4-4-4-4-4-4-4-4-4-4-5-5-5-5-8-8-8-8-8-8-8-8-8-8-8-8-10-10-10-10-|
|-5-5-5-5-5-5-5-5-5-5-5-5-5-5-5-5-5-5-5-5-5-5-5-5-5-5-5-5-5--5--5--5--|
|---------------------------------------------------------------------| (4X)
|---------------------------------------------------------------------|

Guitar 2
|------------------------------------------------------------------|
|------------------------------------------------------------------|
|-4-4-4-4-4-4-4-4-4-4-4-4-4-4-4-4-3-3-3-3-3-3-3-3-3-3-3-3-5-5-5-5--|
|-5-5-5-5-5-5-5-5-5-5-5-5-5-5-5-5-5-5-5-5-5-5-5-5-5-5-5-5-5-5-5-5--|
|------------------------------------------------------------------| (2X)
|------------------------------------------------------------------|

          G
auch wenn niemand mir das glaubt
D#
innen ist alles neu
F               G
ich seh nur von außen scheiße aus
     D#
aber innen ist alles neu
            C
und ich bin okay
        D#
ich bin okay
            B                          F
seitdem ich neuerdings zur Bibelstunde geh


Guitar 1
|--15---------15----------|
|-----15---15----15-16~---|
|-------------------------|
|-------------------------|
|-------------------------|
|-------------------------| (2X)

Guitar 2
|---------------------------------------------------------------------|
|---------------------------------------------------------------------|
|-4-4-4-4-4-4-4-4-4-4-4-4-5-5-5-5-8-8-8-8-8-8-8-8-8-8-8-8-10-10-10-10-|
|-5-5-5-5-5-5-5-5-5-5-5-5-5-5-5-5-5-5-5-5-5-5-5-5-5-5-5-5-5--5--5--5--|
|---------------------------------------------------------------------|
|---------------------------------------------------------------------|

Verse
Guitar 1
|---------------------------------------------------------------------|
|---------------------------------------------------------------------|
|-4-4-4-4-4-4-4-4-4-4-4-4-5-5-5-5-8-8-8-8-8-8-8-8-8-8-8-8-10-10-10-10-|
|-5-5-5-5-5-5-5-5-5-5-5-5-5-5-5-5-5-5-5-5-5-5-5-5-5-5-5-5-5--5--5--5--|
|---------------------------------------------------------------------| (2X)
|---------------------------------------------------------------------|


     G                              C
alle wollen mir permanent ganz lieb helfen
              G                            C
ich zähl ganz leise nur bis 10 um nicht zu platzen

     G
hört her verdammt nochmal
D#
innen ist alles neu
F       G
und ich fühl mich wunderbar
     D#
denn innen ist alles neu
F         G
auch wenn keiner das verstehen will
D#
innen ist alles neu
    G
ihr solltet mal bei mir reinsehen
     D#
denn innen ist alles neu
            C
und ich bin okay
           D#
ja ich bin okay
            B                          F
seitdem ich neuerdings zur Bibelstunde gehe

|---------------------------|
|---------------------------|
|--15-15-14-14-12-12-14-14--|
|---x--x--x--x--x--x--x--x--|
|--13-13-12-12-10-10-12-12--|
|---------------------------|

        C
ich bin okay
           D#
ja ich bin okay
        B
ich bin ganz in meiner
    F
und lass mich nicht rausbringen

Ende
|----------------------------|
|----------------------------|
|----------------------------|
|-5-5---5-5-5---5-5-5---5-5--|
|-5-5---5-5-5---5-5-5---5-5--|
|-3-3---3-3-3---3-3-3---3-3--|
            

comments powered by Disqus
↑ Back to top | Die Toten Hosen Tabs for Innen Alles Neu. Lyrics for acoustic guitar and electric guitar. Tablatures and chords are parodies/interpretations of the original songs. You may use it for private study, scholarship, research or language learning purposes only