» » »

Die Toten Hosen, Ich Bin Die Sehnsucht In Dir Tabs (ver.1)

Artists:  A B C D E F G H I J K L M N O P Q R S T U V W X Y Z # 

Ich Bin Die Sehnsucht In Dir Tabs (ver.1)

Die Toten Hosen Tabs
 Rating:
4/5 (4 votes)
Ich Bin Die Sehnsucht In Dir lessons Tabs too difficult? Try these video lessons and learn fast
1
                Tuning:
F5	133xxx    
G5	355xxx
Cm	335543
Cm4	335533
Dm4	557755
Bm4	113311
Fsus8	88101088

Intro:
e|-------------------------------------------------------------------------|
B|-------------------------------------------------------------------------|
G|-------0------0-------------0------0-------------------------------------|
D|-----2-------------------1-------2---2-----------------------------------|
A|---2-------2-----------2-------1-----------------------------------------|
E|-0-------3---------------------------------------------------------------|

e|-------------------------------------------------------------------------|
B|-----------------------------------------2-/-3---------------------------|
G|-------0------0--------------0------2------------------------------------|
D|-----2--------------------1-------2--------------------------------------|
A|---2-------2------------2-------1----------------------------------------|
E|-0-------3---------------------------------------------------------------|

Verse 1:
e|-------------------------------------------------------------------------|
B|-------------------------------------------------------------------------|
G|-------0------0-------------0------0-------------------------------------|
D|-----2-------------------1-------2---2-----------------------------------|
A|---2-------2-----------2-------1-----------------------------------------|
E|-0-------3---------------------------------------------------------------|
     Wir kennen uns ein Leben lang
     
e|-------------------------------------------------------------------------|
B|-----------------------------------------2-/-3---------------------------|
G|-------0------0--------------0------2------------------------------------|
D|-----2--------------------1-------2--------------------------------------|
A|---2-------2------------2-------1----------------------------------------|
E|-0-------3---------------------------------------------------------------|
     Ich habe dich schon als Kind umarmt
     
e|--------1--------0---------0---------------------------------------------|
B|------------------------------------3------------------------------------|
G|-----2-------2---------0-------------------------------------------------|
D|---0-------0---------2-----------2---------------------------------------|
A|-------------------------------1-----------------------------------------|
E|-------------------------------------------------------------------------|
     Ich hab mit dir die Jahre gezählt
     Mit deinen Träumen habe ich gespielt

Verse 2:
   Ich hab dir deine Wege gesucht
   Ich bin dein Glückl und ich bin dein Fluch
   Hab dir fast den Verstand geraubt
e|-------1-----1--5---------1-------------7--------------------------------|
B|-------1-----1--5---------1-------------7--------------------------------|
G|-------3-----3--7---------3-------------5--------------------------------|
D|----3--3-----3--7------3--3----------5--5--------------------------------|
A|--1------------------1-------------3-------------------------------------|
E|-------------------------------------------------------------------------|
    Du hast trotzdem an mich geglaubt

Chorus (distortion):
Guitar 1:
     F5         Cm            G5            F5         Cm          G5	   
Guitar 2:
e|-------------------------------------------------------------------------|
B|----h--------------------------------------------------------------------|
G|---5--7---7-/-8----8-\-7----5--3----------5--7---7-/-8----8-\-7----------|
D|-----------------------------------------------------------------5-------|
A|-------------------------------------------------------------------------|
E|-------------------------------------------------------------------------|
              Ich bin die Sehnsucht in dir      Ich bin die sehnsucht in dir
              Ich bin die Sehnsucht


Verse 3:
Imemr wenn ich bei dir wahr
Hast du alles nur für mich getan
Ich hab dich in die Irre geführt
Meine Versprechen waren so oft leer


Verse 4 (full distortion):
Dm4		     Fsus8   Bm4     Cm4 
Wegen mir hast du aus Wut geweint

Dm4		     Fsus8   Bm4     Cm4 
Wegen mir hast du dich selbst zum Feind

Dm4		     Fsus8   Bm4     Cm4 
Es ist meine Schuld du kannst nichts dafür

Dm4		     Fsus8   Bm4     Cm4 
Ich bin die Hoffnung und du stirbst mit mir


Chorus:
Ich bin die Sehnsucht in dir
Ich bin die Sehnsucht in dir
Ich bin die Sehnsucht, sehnsucht, sehnsucht

Solo:
Guitar 1
e|-------------------------------------------------------------------------|
B|-------------------------------------------------------------------------|
G|-----------------------------------------------------------7-------------|
D|----------5--7-8-7-----5---------------------------5--7-8----7-8--7-\-5--|
A|-------5----------------6-5---------------------5------------------------|
E|-------------------------------------------------------------------------|
Guitar 2 (2x)
e|--------1--------0---------0---------------------------------------------|
B|------------------------------------3------------------------------------|
G|-----2-------2---------0-------------------------------------------------|
D|---0-------0---------2-----------2---------------------------------------|
A|-------------------------------1-----------------------------------------|
E|-------------------------------------------------------------------------|

Chorus:
Ich bin die Sehnsucht in dir
Und du stirbst mit mir
Ich bin die Sehnsucht in dir
Und du stirbst mit mir

Verse 5:
Ich hab die Welt um dich gedreht
Stell dir die Zeit bin dein Tagedieb
War oft genug dein Alibi
Was auch passiert ich verlass dich nie
                       
| /  slide up
| \  slide down
| h  hammer-on
| p  pull-off
| ~  vibrato
| +  harmonic
| x  Mute note
            
Submit corrections

comments powered by Disqus
↑ Back to top | Die Toten Hosen Tabs for Ich Bin Die Sehnsucht In Dir. Lyrics for acoustic guitar and electric guitar. 1 Tablatures and chords are parodies/interpretations of the original songs. You may use it for private study, scholarship, research or language learning purposes only