» » »

Hang On Sloopy Bass tabs (ver.1)

Artists:  A B C D E F G H I J K L M N O P Q R S T U V W X Y Z # 

Hang On Sloopy Bass tabs (ver.1)

Die Toten Hosen
Rating:
0/5 (0 votes)

Hard to play? Try these video lessons and learn fast.
                It is always the same rightm!
Repeat aleays the same!

Keep on playing this:


Chorus:

G-----------------------------------------------------------------------------------
D-----------------------------------------------------------------------------------
A--------------------3---3---5---5---3----------------------------------------------
E------------3---3-----------------------5------------------------------------------


Verse:

G-----------------------------------------------------------------------------------
D-----------------------------------------------------------------------------------A--------------------3---3---5---5---3----------------------------------------------
E------------3---3-----------------------5------------------------------------------


Solo:

G-----------------------------------------------------------------------------------
D-----------------------------------------------------------------------------------
A--------------------3---3---5---5---3----------------------------------------------
E------------3---3-----------------------5------------------------------------------


That is all

Much "FUN"!  (<----You know!!!)
            
Hard to play? Try these video lessons and learn fast. | Correct




comments powered by Disqus
↑ Back to top | Tablatures and chords are parodies/interpretations of the original songs. You may use it for private study, scholarship, research or language learning purposes only