» » »

Die Toten Hosen, Graue Panther Tabs (ver.1)

Artists:  A B C D E F G H I J K L M N O P Q R S T U V W X Y Z # 

Graue Panther Tabs (ver.1)

Die Toten Hosen Tabs
 Rating:
4/5 (4 votes)
Graue Panther lessons Tabs too difficult? Try these video lessons and learn fast
                Die Toten Hosen - Graue Panther
__________________________________

[Intro]
E-------------------------------------------------|
H-------------------------------------------------|
G-------------------------------------------------|
D-------------------------------------------------|
A----5-5---5--5------------5-5---5--5-------------|
E---------------3-3---3--3------------5-5---5--5--|

[1.Strohe]
E-------------------------------------------------|
H-------------------------------------------------|
G-------------------------------------------------|
D-------------------------------------------------|
A----5-5---5--5------------5-5---5--5-------------|
E---------------3-3---3--3------------5-5---5--5--|
Wann hatte ich meinen letzten Fick?
Ich bin garnz erhlich: Ich weiss es nicht.

E-------------------------------------------------|
H-------------------------------------------------|
G-------------------------------------------------|
D-------------------------------------------------|
A----5-5---5--5------------5-5--------5-5---4-----|
E---------------3-3---3--3-------5--5----------5--|
Es läuft schon lang nichts mehr so, wie es mal früher lief -
höchste Zeit, das einzusehn.

E-------------------------------------------------|
H-------------------------------------------------|
G-------------------------------------------------|
D-------------------------------------------------|
A----2-2-------------------2-2--------------------|
E----------3--3-5-5---5--5-------3--3-5-5---5--5--|
Ich habe Schmerzen im Kreuz, wenn ich aufstehen will;
die Achillesferse tut mir weh.

E-------------------------------------------------|
H-------------------------------------------------|
G-------------------------------------------------|
D-------------------------------------------------|
A----2-2-----------------2-5-5--------------------|
E----------3--3-5-5---5----------3--3-5-5---5--5--|
Und das Einzige, was nicht kaputt an mir ist,
sind die Brücken in meinem Gebiss.

[Refrain]
                   D             G
Ich bin ein alter Mann, schweinealt
               D             G            A
nur ein alter Punk, viel zu alt - schweinealt

[2.Strophe] (PowerChords)
          D                 G
Wenn wir Altpunks uns mal treffen,
              D                       A
geht es noch manchmal richtig wütend zu.
     D                    G
Wir kämpfen gegen das Vergessen
           D               A       D
und um Respekt für unsere Generation.
          H                        A
Früher schimpften wir über das Schweinesystem
           H              A
und beschworen die Revolution.
                  H            A
Heute geht's um Rheuma und um Hodenkrebs
            H       G         A
und unsere Altersversicherung.

[Refrain]
                D            G
Wir sind alte Punks, schweinealt
       D             G
alte Punks, viel zu alt
                D            G
wir sind alte Punks, sterbensalt
         A
schweinealt

[Bridge]
                                G
Wir haben für euch damals den Arsch hingehalten
in den 80er Jahren und was ist der Dank?
  A
Ihr hört Techno und Hip-Hop

und wollt uns über die Strasse helfen.
 G
Wenn wir noch jung wären -
wir würden euch so die Fresse polieren
                A
da braucht ihr gar nicht so dumm zu lachen!

[Refrain]
          D          G
Wir sind alt, alte Punks
        D           G
schweinealt, alte Punks,
        D           G
sterbensalt, alte Punks
        A
schweinealt
               D              G
Wir sind alte Punks, schweinealt
      D         G
alte Punks,
                   D       G
nur einfach alte Punks
         A      A     D
schweinealt

-----------------------------------------------------------------------------------------
            
Submit corrections

comments powered by Disqus
↑ Back to top | Die Toten Hosen Tabs for Graue Panther. Lyrics for acoustic guitar and electric guitar. Tablatures and chords are parodies/interpretations of the original songs. You may use it for private study, scholarship, research or language learning purposes only