>
 >
Friss Oder Stirb

Friss Oder Stirb Guitar Tabs

Die Toten Hosen - Friss Oder Stirb chords, tabs, tablatures, lyrics

Guitar lessons | Add/correct | Request | Top 50 tabs Artists:  A B C D E F G H I J K L M N O P Q R S T U V W X Y Z 0-9

Friss Oder Stirb Guitar Tabs – Die Toten Hosen

CD, Sheet music, Poster

Do you like Friss Oder Stirb? Share with your friends now
Tabs
[Intro]

Leadguitar:
        5x
E |-------------|--------------------------------|
H |-------------|--------------------------------|
G |-2-2-4-4-5-5-|-2-5---5---5---5-2---2---2---2--|
D |-2-2-2-2-2-2-|-2-2---2---2---2-2---2---2---2--|
A |-0-0-0-0-0-0-|-0-0---0---0---0-0---0---0---0--|
E |-------------|--------------------------------|

Rhythmguitar:

E |:-----------------:|:-----------------:|---------------------------------|
H |:-----------------:|:-----------------:|---------------------------------|
G |:-2-2-2-2-2-2-2-2-:|:-----------------:|-5---5---5---5-7---7-7---7---7---|
D |:-2-2-2-2-2-2-2-2-:|:-2-2-2-2-2-2-2-2-:|-5---5---5---5-7---7-7---7---7---|
A |:-0-0-0-0-0-0-0-0-:|:-2-2-2-2-2-2-2-2-:|-3---3---3---3-5---5-5---5---5---|
E |:-----------------:|:-0-0-0-0-0-0-0-0-:|---------------------------------|


[1.Strophe]

= Intro


[1.Bridge] (Fullchords)

 D      F             Am    G
Oh ich liebe dieses Leben
              D       F                    G   E
Das bisschen Sehnsucht bringt mich nicht um


[2.Strophe]

Leadguitar:
E |---------------------------------|
H |---------------------------------|
G |-3-3-3-2-2-2-4-4-5-5-2-2-4-4-5-5-| 3x
D |-3-3-3-2-2-2-2-2-2-2-2-2-2-2-2-2-|
A |-1-1-1-0-0-0-0-0-0-0-0-0-0-0-0-0-|
E |---------------------------------|

Rhythmguitar:
E |---------------------------------|
H |---------------------------------|
G |---------------------------------| 3x
D |-8-8-8-7-7-7-7-7-7-7-7-7-7-7-7-7-|
A |-8-8-8-7-7-7-7-7-7-7-7-7-7-7-7-7-|
E |-6-6-6-5-5-5-5-5-5-5-5-5-5-5-5-5-|

Leadguitar:
        3x
E |-------------|--------------------------------|
H |-------------|--------------------------------|
G |-2-2-4-4-5-5-|-5---5---5---5---2---2---2---2--|
D |-2-2-2-2-2-2-|-2---2---2---2---2---2---2---2--|
A |-0-0-0-0-0-0-|-0---0---0---0---0---0---0---0--|
E |-------------|--------------------------------|

Rhythmguitar:
E |:-----------------:|:-----------------:|---------------------------------|
H |:-----------------:|:-----------------:|---------------------------------|
G |:-2-2-2-2-2-2-2-2-:|:-----------------:|-5---5---5---5---7---7---7---7---|
D |:-2-2-2-2-2-2-2-2-:|:-2-2-2-2-2-2-2-2-:|-5---5---5---5---7---7---7---7---|
A |:-0-0-0-0-0-0-0-0-:|:-2-2-2-2-2-2-2-2-:|-3---3---3---3---5---5---5---5---|
E |:-----------------:|:-0-0-0-0-0-0-0-0-:|---------------------------------|


[1.Bridge]

(Powerchords)


[Refrain]

Leadguitar:     Fullchords
Rhythmguitar:   Powerchords

8tel:  A  -  C  -  F  -  D
       A  -  C  -  F  -  F

[2.Bridge]

 Am             C               H             Am
Einigkeit und Recht und Freiheit und Solidarität
 Am          C             G             E
Wir sind so müde von diesem Gute-Nacht-Gebet

Diese ganzen schönen Worte will keiner mehr hören
Ausser der Zeit haben wir nichts zu verlieren


[1.Bridge]


[3.Strophe]

Am - E - C - D - Am

Leadguitar:
E |---------------------------------|
H |---------------------------------|
G |-3-3-3-2-2-2-4-4-5-5-2-2-4-4-5-5-| 1x
D |-3-3-3-2-2-2-2-2-2-2-2-2-2-2-2-2-|
A |-1-1-1-0-0-0-0-0-0-0-0-0-0-0-0-0-|
E |---------------------------------|

Rhythmguitar:
E |---------------------------------|
H |---------------------------------|
G |---------------------------------| 1x
D |-8-8-8-7-7-7-7-7-7-7-7-7-7-7-7-7-|
A |-8-8-8-7-7-7-7-7-7-7-7-7-7-7-7-7-|
E |-6-6-6-5-5-5-5-5-5-5-5-5-5-5-5-5-|

Leadguitar:
        5x
E |-------------|--------------------------------|
H |-------------|--------------------------------|
G |-2-2-4-4-5-5-|-5---5---5---5---2---2---2---2--|
D |-2-2-2-2-2-2-|-2---2---2---2---2---2---2---2--|
A |-0-0-0-0-0-0-|-0---0---0---0---0---0---0---0--|
E |-------------|--------------------------------|

Rhythmguitar:
E |:-----------------:|:-----------------:|---------------------------------|
H |:-----------------:|:-----------------:|---------------------------------|
G |:-2-2-2-2-2-2-2-2-:|:-----------------:|-5---5---5---5---7---7---7---7---|
D |:-2-2-2-2-2-2-2-2-:|:-2-2-2-2-2-2-2-2-:|-5---5---5---5---7---7---7---7---|
A |:-0-0-0-0-0-0-0-0-:|:-2-2-2-2-2-2-2-2-:|-3---3---3---3---5---5---5---5---|
E |:-----------------:|:-0-0-0-0-0-0-0-0-:|---------------------------------|

Leadguitar:
E |-----------------------------------|
H |-----------------------------------|
G |-5-5-4-4-7-7-5-5-9-9-7-7-10-10-9-9-|
D |-----------------------------------|
A |-----------------------------------|
E |-----------------------------------|

E |:-----------------:|
H |:-----------------:|
G |:-----------------:|
D |:-----------------:|
A |:-0-0-0-0-0-0-0-0-:|
E |:-----------------:|


[1.Bridge]


[Refrain]


[Coda]

Leadguitar:
E |---------------------------------|
H |---------------------------------|
G |-3-3-3-2-2-2-2-2-2-2-2-2-2-2-2-2-|
D |-3-3-3-2-2-2-2-2-2-2-2-2-2-2-2-2-| 3x
A |-1-1-1-0-0-0-0-0-0-0-0-0-0-0-0-0-|
E |---------------------------------|

Rhythmguitar:
E |---------------------------------|
H |---------------------------------|
G |---------------------------------|
D |-8-8-8-7-7-7-7-7-7-7-7-7-7-7-7-7-| 3x
A |-8-8-8-7-7-7-7-7-7-7-7-7-7-7-7-7-|
E |-6-6-6-5-5-5-5-5-5-5-5-5-5-5-5-5-|

Lead- & Rhythmguitar:
E |----------------|
H |----------------|
G |-3-3-3-2--------|
D |-3-3-3-2--------|
A |-1-1-1-0--------|
E |----------------|





Comments


Popular Die Toten Hosen tabs & chords
Zehn Kleine Jgermeister Bass Tabs
Drauen Vor Der Tur 5 Chords
First Time Chords
Nur Zu Besuch Chords
Wahre Liebe Chords
BöSer Wolf 1 Tabs
Freunde Tabs
Und Sowas Nennst Du Liebe Tabs
35 Jahre Ukulele
Alles Was War Ukulele


Song lyrics



↑ Back to top | Tablatures and chords are parodies/interpretations of the original songs. You may use it for private study, scholarship, research or language learning purposes only
© 2014 AZChords.com Contact us | Privacy policy | DMCA | Add/correct tabs | Request tabs | Top 50 tabs