>
 >
Fallen

Fallen Guitar Tabs

Die Toten Hosen - Fallen chords, tabs, tablatures, lyrics

Guitar lessons | Add/correct | Request | Top 50 tabs Artists:  A B C D E F G H I J K L M N O P Q R S T U V W X Y Z 0-9

Fallen Guitar Tabs – Die Toten Hosen

CD, Sheet music, Poster

Do you like Fallen? Share with your friends now
Tabs
Die Toten Hosen
Fallen (Frege/Breitkopf)
Ich bin die Sehnsucht in dir (Single, 2004)


Em A5/E Em A5/E Em A5/E Em A5/E     

Em
Sorglos koennen wir fliegen,
        Am           C       D       Em
bis die Sonne uns're Fluegel einfach wegschmilzt.

Dann kommen die Fragen, was der Grund ist,
            Am             C      D        E 
was uns auf einmal aus den Wolken stuerzen laesst.


Chorus-Lead (Keyboard for guitar)
.......................................
E|--------------------|----------|
H|-8---8--10-8-7--6-7-|-7--7-8-5-|
G|--------------------|----------|
D|--------------------|----------|
A|--------------------|----------|
E|--------------------|----------|

E|--------------------|----------|
H|-8---8--10-8-7--6-7-|-5--7-5-4-|
G|--------------------|----------|
D|--------------------|----------|
A|--------------------|----------|
E|--------------------|----------|

G                         D
Doch ich weiss, wenn ich falle,
Hm               A
jemand hebt mich auf.
        Em                        D
Und ich denk' noch, waehrend ich falle,
            C                  H
schoen fuer mich, dass es dich gibt.

Solo
.......................................
   Em                Am            C D E 
E||-----------------||------------|--------|
H||o---------------o||------------|--------|
G||-----------------||------------|--------|
D||----------2-4-2--||-4-2--------|---0-2--|
A||o-----0-2-------o||-----3-2-0--|-3------|
E||---0-------------||------------|--------|

  D       C       H7
E|-------|-------|-------|
H|-------|-------|-------|
G|-------|-------|-------|
D|-9-/-4-|-9-/-5-|-9-/-7-|
A|-------|-------|-------|
E|-------|-------|-------|



Em          Asus4/E      Em
Glaube, was heisst schon Glaube?
            Am             C      D           E
Welchem Gesetz und welchem wahren Wort vertraust du?
                      A5/E   Em
Noch im Sturzflug schaemen wir uns,
             Am             C        D         Em 
dass wir nur beten, wenn es wirklich einmal hart kommt.


          G                     D
Damit wir sicher sind, wenn wir fallen,
      Hm              A
irgendjemand hebt uns auf.
        Em                   D
Und wir hoffen, waehrend wir fallen,
            C                H7
dass uns auch irgendjemand braucht.

        G                    D
Und wir beten drum, wenn wir fallen,
           Hm            A
dass wir nicht alleine sind.
          Em                     D
Und ich denke noch, waehrend ich falle,
              C                  H7
schoen fuer mich, dass es dich gibt.


Outro
.......................................
Em Emb13  Em Emb13   Am Am11 C D  Em Emb13  Em Emb13  Em


E||--15-15-------14-14-------12-12-------11-11---------||-12-||
H||o-------12-12-------12-12-------12-12-------12-12--o||----||
G||--------------------------------------------------4x||----||
D||----------------------------------------------------||----||
A||o--------------------------------------------------o||----||
E||----------------------------------------------------||----||





Comments


Popular Die Toten Hosen tabs & chords
Am Ende Chords
Do Anything You Wanna Do Chords
Katastrophen Kommando Chords
Nur Zu Besuch 4 Chords
Alles Wird Vorrbergehen Tabs
Boeser Wolf Tabs
Er Denkt, Sie Denkt Tabs
Nichts Bleibt Fr Die Ewigkeit Intro Tabs
Wort Zum Sonntag Tabs
Tauschen Gegen Dich Ukulele


Song lyrics



↑ Back to top | Tablatures and chords are parodies/interpretations of the original songs. You may use it for private study, scholarship, research or language learning purposes only
© 2014 AZChords.com Contact us | Privacy policy | DMCA | Add/correct tabs | Request tabs | Top 50 tabs