» » »

Die Toten Hosen, Du Lebst Nur Einmal Tabs (ver.1)

Artists:  A B C D E F G H I J K L M N O P Q R S T U V W X Y Z # 

Du Lebst Nur Einmal Tabs (ver.1)

Die Toten Hosen Tabs
 Rating:
4/5 (4 votes)
Du Lebst Nur Einmal lessons Tabs too difficult? Try these video lessons and learn fast
1
                

Intro
e|--------------------------|
B|-----------------------3--|
G|--4-4--2h4-2h4-4-4--2-4---| x8
D|--------------------------|
A|--------------------------|

e|----------------------------------------------|
B|----------------------------------------------|
G|--44444-77777------------4444-7777-999999-----|
D|--44444-77777-5555555-4--4444-7777-999999-4~--|
A|--22222-55555-5555555-4--2222-5555-777777-4~--|
E|--------------3333333-2-------------------2~--|

Verse
e|-----------------------------------------------|
B|-----------------------------------------------|
G|--4----------------------4---------------------|
D|--4-4444-------------4~--4-4444------999999-4~-| x2
A|--2-2222-5454-555555-4~--2-2222-5454-777777-4~-|
E|--------------333333-2~---------------------2~-|
      .... .... ......       .... .... ......

Chorus -> after playing Pt 2, play again Pt1 again

Pt.1                             Pt2
e|------------------------------|------------------------------|
B|------------------------------|------------------------------|
G|--444444--------777777-222222-|-444444--------777777-999999--|
D|--444444-555555-777777-222222-|-444444-555555-777777-999999--|
A|--222222-555555-555555-000000-|-222222-555555-555555-777777--|
E|---------333333---------------|--------333333----------------|

Intro
Verse
Chorus
Bridge -> sorry, couldn't figure out what's going on here.
Chorus

Finish with
e|------------|
B|------------|
G|--44-44-44--|
D|--44-44-44--|
A|--22-22-22--|
E|------------|
            
Submit corrections

comments powered by Disqus
↑ Back to top | Die Toten Hosen Tabs for Du Lebst Nur Einmal. Lyrics for acoustic guitar and electric guitar. 1 Tablatures and chords are parodies/interpretations of the original songs. You may use it for private study, scholarship, research or language learning purposes only